Hel - K Mpa Chords & Tabs

 

K Mpa Chords & Tabs

Hel Chords & Tabs

Version: 1 Type: Tab 0 ratings
1 star 2 stars 3 stars 4 stars 5 stars
comments

K Mpa Tab

   
#----------------------------------PLEASE NOTE--------------------------------#
#This file is the author's own work and represents their interpretation of the#
#song. You may only use this file for private study, scholarship, or research.#
#-----------------------------------------------------------------------------#



Artist: Hel (Völund Smed)
Song: Kämpa
Tabbed by: Hampus Lager

Intro:
E|-------------------------------------------------------------| 
B|-------------------------------------------------------------|
G|-------------------------------------------------------------|
D|-------------------------------------------------------------| 
A|------10-----11-----10-----11-----10-------6-----6-10-9-7-5--| 
E|--8-8----8-8----8-8----8-8----8-8------4-4---4-4----8-7-5-3--| x4

E|-------------------------------------------| 
B|-------------------------------------------|
G|-------------------------------------------|
D|-------------------------------------------|
A|--7--5---10-10-9-7-5---7--5---10--7-5--10--| 
E|--5--3---8---8-7-5-3---5--3----8--5-3---8--|


Verse:
C
Mitt liv är fyllt av vemod, allting har blivit svart,
          G	  A	C     A G C
Det finns ingenting som gör mig glad.
C				 G
Ge mig en anledning att ta, nya krafter nya tag,
	     A	     C	A G C
Så att det blir ljusare en dag.


Bridge:
C		   G
Det skola skina nånting gott,
G		 A
Göra Sverige gult och blått,
A		  F
Ge mig en anledning att tro, Kämpar jag på. 


Chorus:
C/G     A	         F
(Åh) Vi måste kämpa på
C/G       A         F G C
(Åh) Ingen ger sig
C/G	A	F
(Åh) Ingen seger utan kamp
C/G 	  A       F G C
(Åh) För jag kämpar

[ Tab from: http://www.guitartabs.cc/tabs/h/hel/k_mpa_tab.html ]
Verse:
Jag hittar ingen lösning, jag finner inga svar,
Och snart finns inga vägar kvar.
Det blandas av och ges, men ingen ljusning ses,
Det blir allt värre för var dag.

Bridge:
Det skola skina nånting gott,
Göra Sverige gult och blått,
Ge mig en anledning att tro,
Kämpar jag på.

Chorus:
(Åh) Vi måste kämpa på
(Åh) Ingen ger sig
(Åh) Ingen seger utan kamp
(Åh) För jag kämpar

1st solo: 
E|----------------------------------------------------------------------| 
B|----------------------------------------------------------------------|
G|--7-7/--7----9-7------------------------------------9-----9-----9-----|
D|----------10-----10-9-7hold----------------7--10-9----7-9---7-9---10--| 
A|-----------------------------------7-10-10----------------------------| 
E|------------------------------9-10------------------------------------|

E|--15-15/--17-15--13-12-13-12-10-12-10-12-----|---------------10-12-13--12—-8hold--| 
B|-----------------------------------------13--|--8-10-8-10-12----------------------|
G|---------------------------------------------|------------------------------------|
D|---------------------------------------------|------------------------------------| 
A|---------------------------------------------|------------------------------------| 
E|---------------------------------------------|------------------------------------|
(Rhythm guitar plays the chords that are used during chorus)

Verse:
Mitt liv är fyllt av vemod, allting har blivit svart,
Det finns ingenting som gör mig glad.
Ge mig en anledning att ta, nya krafter nya tag,
Så att det blir ljusare en dag.

Bridge:
Det skola skina nånting gott,
Göra Sverige gult och blått,
Ge mig en anledning att tro,
Kämpar jag på.

Chorus:
(Åh) Vi måste kämpa på
(Åh) Ingen ger sig
(Åh) Ingen seger utan kamp
(Åh) För jag kämpar

2nd solo:
I havn’t figured out the second solo yet. But it’s ok to play the first solo again.
Rhythm guitar plays the chords that are used during chorus.


Comments