Hel - Den Fages Logn Chords & Tabs

 

Den Fages Logn Chords & Tabs

Hel Chords & Tabs

Version: 2 Type: Tab 0 ratings
1 star 2 stars 3 stars 4 stars 5 stars
comments

Den Fages Logn Tab

   
____________________________________
     
    [ HEL - DEN FAGES LOGN ]
____________________________________

Note: This is my first tab!
The solos and the riffs are written in the most simple form.
Listen to the the tune and you´ll find out how it sounds!

Comments and questions can be sent to me at: "metalluppyourass@hotmail.com"

Albin Kummel alias "-=Ta€ngI|l=-"
____________________________________

Standard tuning.

Intro:
e|---------------------------------|
B|---------------------------------|
G|---------------------------------|
D|-----2-------2-------2-------2---|
A|---2---2---2---2---3---3---3---3-|
E|-0-------0-------0-------0-------|

Vers:
|--------------------------------------------------------------------|
|--------------------------------------------------------------------|
|--------------------------------------0-------0-------0--------0----|
|-----2-------2-------2-------2----------0-------0-------0--------0--|
|---2---2---2---2---3---3---3---3----5-------5-------4-------4-------|
|-0-------0-------0-------0--------3-------3-------2-------2---------|

"Du ser dig själv i en grav, bara nakna andetag..."

Mellanriff:
|------------------|
|------------------|
|------------------|
|-2---2---2---2----|
|-2---3---2---3----|
|-0-------0--------|

Refrang:
   -> E5 C5 G5 F#5 <-
"Ingenting ar som forut..."

[ Tab from: http://www.guitartabs.cc/tabs/h/hel/den_fages_logn_tab_ver_2.html ]
Solo 1:
|-12-12----12-10---12--12-12-12-10-8-10-12--12-12-12-10-8-10-12------|
|-------10-------8---------------------------------------------------|
|--------------------------------------------------------------------|
|--------------------------------------------------------------------|
|--------------------------------------------------------------------|
|--------------------------------------------------------------------|

|----------------12-12-----------------------------------------------|
|-12-12-10-8-10--------14-12-------12---12-12-12-------12-12-14-12---|
|----------------------------14-12---------------14-12---------------|
|--------------------------------------------------------------------|
|--------------------------------------------------------------------|
|--------------------------------------------------------------------|

|------------12--12-12-14-12--------------12-12-14-12----------------|
|14-12-12-14-----------------14-12-12-14--------------14-12-14~14~14^|
|--------------------------------------------------------------------|
|--------------------------------------------------------------------|
|--------------------------------------------------------------------|
|--------------------------------------------------------------------|


Riff[~15x]: Solo 2:
|---------|--------------|
|------15-|-15-11--------|
|----0----|-------16-12~~|
|-12------|--------------|
|---------|--------------|
|---------|--------------|

© - Albin Kummel
Comments