Hel - Den Fages Logn Chords & Tabs

 

Den Fages Logn Chords & Tabs

Hel Chords & Tabs

Version: 1 Type: Tab 0 ratings
1 star 2 stars 3 stars 4 stars 5 stars
comments

Den Fages Logn Tab

   
Hel - Den fages logn
Valkyriors dom


Intro
---------------------------------|
---------------------------------|
---------------------------------|
-----2-------2-------2-------2---|
---2---2---2---2---3---3---3---3-|
-0-------0-------0-------0-------|
[ Tab from: http://www.guitartabs.cc/tabs/h/hel/den_fages_logn_tab.html ]
Vers
----------------------------------------------------------------------|
----------------------------------------------------------------------|
--------------------------------------0-------0-------0--------0------|
-----2-------2-------2-------2----------0-------0-------0--------0----|
---2---2---2---2---3---3---3---3----5-------5-------4-------4---------|
-0-------0-------0-------0--------3-------3-------2-------2-----------|
"Du ser dig sj?lv i en grav, bara nakna andetag..."

Mellanriff
------------------|
------------------|
------------------|
-2---2---2---2----|
-2---3---2---3----|
-0-------0--------|

Refr?ng:
      E5 C5 G5 F#5
"Ingenting ?r som f?rut..."


/metal_up_your_ass@2die4.com
Comments