Heir Apparant - The Hands Of Destiny Chords & Tabs

 

The Hands Of Destiny Chords & Tabs

Heir Apparant Chords & Tabs

Version: 1 Type: Tab 0 ratings
1 star 2 stars 3 stars 4 stars 5 stars
comments

The Hands Of Destiny Tab

   
THE HANDS OF DESTINY (Heir Apparent) 

Tabbed by Spyros Soldatos lordovol@mailbox.gr 
Homepage http://www.geocities.com/SunsetStrip/Frontrow/8281/


  Intro:....................................
    A5        C5         B5       D5 
||---------------------|--------------------||
||*--------------------|-------------------*||
||--2---------5--------|-4--------7---------||
||--2---------5--------|-4--------7---------||
||*-0---------3--------|-2--------5--------*||
||---------------------|--------------------||

Solo w/intro twice.............................................
  A5     C5   B5                 D5  A5   C5  B5          D5  
|-----------|----------------------|--------|-------0-1-3-1---|
|-8/10--/17-|-15-13-12-10-12-13----|------1-|-0-1-3-----------|
|-----------|-------------------10-|-0h2----|-----------------|
|-----------|----------------------|--------|-----------------|
|-----------|----------------------|--------|-----------------|
|-----------|----------------------|--------|-----------------|

....................
  A5    Harm.......
|-0---|---------7-|
|-----|-----7-----|
|-----|-7---------|
|-----|-----------|
|-----|-----------|
|-----|-----------|

Rh.Fig.1..................................................
    A5                             F5                              4x
||------------------------------|----------------------------------||
||*-----------------------------|---------------------------------*||
||--2------2------2------2------|----------------------------------||
||--2------2------2------2------|--3------3------3-2-0---0---------||
||*-0-0-0--0-0-0--0-0-0--0-0-0--|--3------3------------3----3-2-3-*||
||------------------------------|--1-1-1--1-1-1--------------------||
1. Like oil upon a canvas cast in silver black and gray.
   The angry skies of autumn hold the distant sun at bay. 
   Mighty airborne armies waging battles in the sky
   Clouds are locked in conflict sending thunderbolts to fly 
2. 3. See additional lyrics

 Chorus............................................
  D5             G5              C5  B5    A5    G5
|------------------------------|-------------------|
|------------------------------|-------------------|
|-7----------------------------|-5---4-----2-------|
|-7--------------5-------------|-5---4-----2-----5-|
|-5--------------5-------------|-3---2-----0-----5-|
|----------------3-------------|-----------------3-|
    Yet in our abandoned wisdom man can't tame the 
[ Tab from: http://www.guitartabs.cc/tabs/h/heir_apparant/the_hands_of_destiny_tab.html ]
  .............................................................
  F5       G5                 A5  
|---------------------------|---------------------------------|
|---------------------------|---------------------------------|
|---------------------------|---------------------------------|
|-3--------5----------------|---------------------------------|
|-3--------5----------------|-0-3-2-0-5-3-2-3-0-3-2-0-5-3-2-3-|
|-1--------3----------------|---------------------------------|
  sky the mountains  or the  sea

 .....................................................
  D5                G5              C5  B5    A5    G5
|---------------------------------|-------------------|
|---------------------------------|-------------------|
|-7-------------------------------|-5---4-----2-------|
|-7-----------------5-------------|-5---4-----2-----5-|
|-5-----------------5-------------|-3---2-----0-----5-|
|-------------------3-------------|-----------------3-|
    Held beyond our understanding  helpless   to   de- 


  ......................Intro:............................
  F5      G5               A5  C5   B5 D5     A5
|----------------------||---------|--------||-----|-------|
|----------------------||*--------|-------*||-----|-------|
|----------------------||--2---5--|-4--7---||-2---|-(2)---|
|-3-------5------------||--2---5--|-4--7---||-2---|-(2)---|
|-3-------5------------||*-0---3--|-2--5--*||-0---|-(0)---|
|-1-------3------------||---------|--------||-----|-------|
  ny the hands of desti-  ny

 Rh.Fig.1 (2nd verse)

 Chorus

Bridge.................................................................
 N.C.
|---------------|-------------------|------/-8-7----|------/-8-7--8-10-|
|---------------|-------------------|-------------8-|------------------|
|---------------|-------------------|---------------|------------------|
|------/10-9----|-------/10-9-10/12-|------/10-9----|------/10-9-10/12-|
|-0-0--------10-|-0-0---------------|-0-0--------10-|-0-0--------------|
|---------------|-------------------|---------------|------------------|

Solo w/Chorus

Rh.Fig.1 (3rd verse)

Chorus

Intro

Outro.................
  A5  
|---------------------|
|---------------------|
|-----------------2-2-|
|-----------------2-2-|
|-0-3-2-0-5-3-2-3-0-0-|
|---------------------|


Add. Lyrics

(2nd verse)
A monolithic menace reaches up to touch the sky
Below a tiny township waiting helpless to defy
In a violent clamor sends a molten sea of flame
Bringing forth destruction leaving nothing to remain

(3rd verse)
With the rage of Neptune savage seas divide the land
Claiming countless victims of the power at his command
Dark and dismal waters seem to laugh with fiendish pride (ha-ha)
Leaving those who dare to venture washed up with the tide
Comments