Heinz Rudolf Kunze - Mit Meinem Leeren Glas Chords & Tabs

 

Mit Meinem Leeren Glas Chords & Tabs

Heinz Rudolf Kunze Chords & Tabs

Version: 2 Type: Tab 0 ratings
1 star 2 stars 3 stars 4 stars 5 stars
comments

Mit Meinem Leeren Glas Tab

   
interpret:  Heinz Rudolf Kunze
titel:      Mit meinem leeren Glas
album:      Reine Nervensache
                                        VERBESSERTE VERSION!!!

von:------Henrik Hertel-----> henland@nexgo.de

date: (29.03.2001)

verwendete Akkorde:
CaddG:    -x 3 2 0 1 3-
?:        -x 2 2 0 1 3-
Am6:      -x 0 2 2 1 2-
F:        -1 3 3 2 1 1-
Emadd9:   -0 2 2 0 0 2-
C:        -x 3 2 0 1 0-
G:        -3 2 0 0 0 3-  oder -3 5 5 4 3 3-
Am:       -x 0 2 2 1 0-

Intro:
    CaddG
e/--------3-----3--------3-----3--------3-----3----------3-----3--|
B/----1-----1--------1-----1--------1-----1----------1-----1------|
G/------0-----0--------0-----0--------0-----0----------0-----0----|
D/-----------------2-----------------------------0h2--------------|
A/--3-----------------------------3-------------------------------|
E/----------------------------------------------------------------|

bedeutet die Leersaite anschlagen und gleich
auf den 2. Bund mit dem Finger "raufh?mmern"


1. Strophe:

Tabulatur:

    CaddG          ?              Am6           F
e/--------3-----3--------3-----3--------2-----2--------1-----1--|
B/----1-----1--------1-----1--------1-----1--------1-----1------|
G/------0-----0--------0-----0--------2-----2--------2-----2----|
D/--------------------------------------------------------------|
A/--3--------------2--------------0-----------------------------|
E/----------------------------------------------1---------------|


    CaddG          ?              Am6           F
e/--------3-----3--------3-----3--------2-----2--------1-----1--|
B/----1-----1--------1-----1--------1-----1--------1-----1------|
G/------0-----0--------0-----0--------2-----2--------2-----2----|
D/--------------------------------------------------------------|
A/--3--------------2--------------0-----------------------------|
E/----------------------------------------------1---------------|


    CaddG          Emadd9         F                F
e/--------3-----3--------2-----2--------1-----1----------1---|
B/----1-----1--------0-----0--------1-----1----------1-------|
G/------0-----0--------0-----0--------2-----2----------2-----|
D/-------------------------------------------------3---------|
A/--3--------------2-----------------------------------------|
E/--------------------------------1--------------------------|

Akkorde:

CaddG          ?
 Ich hoffe Ihr f?hlt euch wohl
[ Tab from: http://www.guitartabs.cc/tabs/h/heinz_rudolf_kunze/mit_meinem_leeren_glas_tab_ver_2.html ]
      Am6 (oder Am)                F                        CaddG
ein W?schekorb Kartoffelchips und f?nfundzwanzig Flaschen Wein

                      ?
vor'm Klo h?ngt ein Einsatzplan

    Am6 (oder Am)
ich f?hl mich nicht, ich lasse Euch

     F                             CaddG
von Zeit zu Zeit mit Eurem Gl?ck allein  Bei mir

        Emadd9           F    CaddG  G  F
wird's ohne mich erst sch?n

Refrain:

                                 CaddG G F  G       C            G
vergib mir Karin es war nur Spa?               aber wo soll ich hin

             Am    F   C            G                    Am
mit meinem leeren Glas wo soll ich hin mit meinem leeren Glas


C  G  Am  F  C  G  Am

Verse 2:
Ich m?chte Dir helfen Freund
sie ist Dich gar nicht wert Du machst Dich umsonst kaputt
Du hast zu sch?n gelebt
Dich nicht mit Flei? auf Pfr?nde programmiert
nur das will sie entf?hre sie kassiere und vergi? sie irgendwo


Refrain:
vergib mir Karin es war nur Spa?
aber wo soll ich hin mit meinem leeren Glas
wo soll ich hin mit meinem leeren Glas


Verse 3:
Ich m?chte da? einer kommt
den ich schon lang nicht mehr gesehen hab
ich fiele ihm um den Hals
wir streunten in die Stadt Ich
h?tt' nicht sehr viel an und holte mir
im Winterwind den Tod


Refrain:
vergib mir Karin es war nur Spa?
aber wo soll ich hin mit meinem leeren Glas
wo soll ich hin mit meinem leeren Glas


Verse 4:
Ich m?chte da? Ihr jetzt geht
ich hab nichts gegen Euch Ihr habt mir nichts getan
es ist ganz meine Schuld ich ruiniere diesen Abend Seht mich bitte
nicht so an Ihr habt kein Recht dazu Ihr nicht

Refrain:
vergib mir Karin es war nur Spa?
aber wo soll ich hin mit meinem leeren Glas
wo soll ich hin mit meinem leeren Glas
vergib mir Karin es war nur
Glas

Diese Version ist bestimmt nicht ganz 100%tig richtig,
(auch weil meine Aufnahme von dem Lied nicht die beste ist),
deshalb schickt mir ne Mail, falls ihr den einen oder anderen Fehler findet!
(Die Grundakkorde sind auf jeden Fall richtig (besser gesagt: "Korrekt")!)

Bei sonstigen Fragen, oder wenn ihr einfach ?ber HRK reden wollt oder
andere gute Tabs von ihm habt, dann mailt mir doch einfach:
henland@nexgo.de

F?r andere Tabs schaut nach unter:
http://home.nexgo.de/henland/GuitarMeadow.html

For other tabs look at
http://home.nexgo.de/henland/GuitarMeadow.html


Corrections, questions, comments or just talk
about Heinz Rudolf Kunze, Echt or John Lennon or the Beatles or you got some good
tabs of them
than E-mail me

henland@nexgo.de
Comments