Heifer - Go Chords & Tabs

 

Go Chords & Tabs

Heifer Chords & Tabs

Version: 1 Type: Tab 0 ratings
1 star 2 stars 3 stars 4 stars 5 stars
comments

Go Tab

   
SONG: GO
BAND: Heifer
TRANSCRIBER: Ashley MacDonald

this is a sick song, from a sick little
Aussie band called 'Heifer'... 
KEEP IT UP BOYS!

played in drop-D tunning (DADGBE)

RIFF1
E|---------------------------------
B|---------------------------------
G|-7--7-7-7-7-7-7-7----------------   
D|-7--7-7-7-7-7-7-7-8-8-8/5--------
A|-5--5-5-5-5-5-5-5-8-8-8/5--------
D|------------------8-8-8/5--------
                                       X4
E|---------------------------------
B|---------------------------------
G|-5-5-5-5-5/7-7-7-7-7-7-7---------   
D|-5-5-5-5-5/7-7-7-7-7-7-7-8-8-8/5-
A|-3-3-3-3-3/5-5-5-5-5-5-5-8-8-8/5-
D|-------------------------8-8-8/5-

BASS PLAYS RIFF1   X4 (alone)
GUITAR PLAYS RIFF1 X4

RIFF2
E|---------------------------------
B|---------------------------------
G|---------------------------------   X4   
D|---------------------------------
A|-3-0-0-3-0-0-3-0-0-3-0-0--3--3---
D|--------------------------3--3---

BASS PLAYS RIFF1   X4 (alone)
GUITAR PLAYS RIFF1 X4
GUITAR PLAYS RIFF2 X4
[ Tab from: http://www.guitartabs.cc/tabs/h/heifer/go_tab.html ]
RIFF3
E|---------------------------------
B|---------------------------------
G|--------------------------5--5---  X4
D|-3-0-0-3-0-0-3-0-0-3-0-0--5--5---
A|-3-0-0-3-0-0-3-0-0-3-0-0--3--3---
D|-3-0-0-3-0-0-3-0-0-3-0-0---------

RIFF4
E|---------------------------------
B|---------------------------------
G|---------------------------------  X4
D|-5p4-0-0-3h4-0-0-5p4-0-0-3h4-0-x- 
A|-5p4-0-0-3h4-0-0-5p4-0-0-3h4-0-x-
D|-5p4-0-0-3h4-0-0-5p4-0-0-3h4-0-x-

E|---------------
B|---------------
G|---------------  X1
D|-0-------------
A|-0--LET-RING---
D|-0-------------

BASS PLAYS RIFF1    X4 (alone)
GUITAR PLAYS RIFF1  X4
GUITAR PLAYS RIFF2  X4
GUITAR PLAYS RIFF3  X7

END ON SOMETHING LIKE...
E|--------------------------------
B|--------------------------------
G|-------------7\6-0-6/7----------
D|-5p4-0-7\6-0-5\4-0-4/5-0-x------
A|-5p4-0-5\4-0-----------0-x------
D|-5p4-0-----------------0-x------

so there you go, HEIFERS PRETTY KICKASS.

this tab is entirely my own work,
transcribed by ear.   ROCK ON!
u can contact me on...
www.glencar@omcs.com.au

             ~BY ASHLEY MACDONALD~
Comments