Heideroosjes - Val Maar Dood Chords & Tabs

 

Val Maar Dood Chords & Tabs

Heideroosjes Chords & Tabs

Version: 1 Type: Tab 0 ratings
1 star 2 stars 3 stars 4 stars 5 stars
comments

Val Maar Dood Tab

e-------------------|
B-------------------|
G--9999999999999999-|
D--9999999999999999-|
A--7777777777777777-|
E-------------------|
 PM................

e---------------------------------------------|
B---------------------------------------------|
G--999 101010-999-777-999-101010-12-12-12-12--|
D--999-101010-999-777-999-101010-10-10-10-10--|
A--777--8-8-8-777-555-777--8-8-8-10-10-10-10--|
E---------------------------------------------|2x

e--------------------------------------|
B--------------------------------------|
G--999-555---------999-555-10-10-10-10-|
D--999-555-999999--999-555-10-10-10-10-|
A--777-333-999999--777-333--8--8--8--8-|
E----------777777----------------------|2x

e---------------------------------------------|
B---------------------------------------------|
G--999 101010-999-777-999-101010-12-12-12-12--|
D--999-101010-999-777-999-101010-10-10-10-10--|
A--777--8-8-8-777-555-777--8-8-8-10-10-10-10--|
E---------------------------------------------|2x

e----------------------------------|
B----------------------------------|
G--999-999-555-555---------10-9-7--|
D--777-777-555-555-999-999-10-9-7--|
A--777-777-333-333-999-999--8-7-5--|
E------------------777-777---------|4x
 PM..  ..  ..  ..  ..  ..

e---------------|
B---------------|
G-9-10-9-7-9-7--|
D-9-10-9-7-9-7--|
A-7--8-7-5-7-5--|
E---------------|4x
[ Tab from: http://www.guitartabs.cc/tabs/h/heideroosjes/val_maar_dood_tab.html ]
e---------------------------------------------|
B---------------------------------------------|
G--999 101010-999-777-999-101010-12-12-12-12--|
D--999-101010-999-777-999-101010-10-10-10-10--|
A--777--8-8-8-777-555-777--8-8-8-10-10-10-10--|
E---------------------------------------------|2x

e--------------------------------------|
B--------------------------------------|
G--999-555---------999-555-10-10-10-10-|
D--999-555-999999--999-555-10-10-10-10-|
A--777-333-999999--777-333--8--8--8--8-|
E----------777777----------------------|2x

e-----------------------------------|
B-----------------------------------|
G-9-10-9-7-9-7-(9)9-----------------|
D-9---------------9-----------------|
A-7---------------7-10-9-7-9-7-(9)--|
E-----------------------------------|2X

e---------------------------------------------|
B---------------------------------------------|
G--999 101010-999-777-999-101010-12-12-12-12--|
D--999-101010-999-777-999-101010-10-10-10-10--|
A--777--8-8-8-777-555-777--8-8-8-10-10-10-10--|
E---------------------------------------------|

e-----------------------------------------------|
B-----------------------------------------------|
G--999 101010-999-777-999-101010-12-12-12-12-12-|
D--999-101010-999-777-999-101010-10-10-10-10-10-|
A--777--8-8-8-777-555-777--8-8-8-10-10-10-10-10-|
E-----------------------------------------------|
Comments