Heideroosjes - Time Is Ticking Away Chords & Tabs

 

Time Is Ticking Away Chords & Tabs

Heideroosjes Chords & Tabs

Version: 1 Type: Tab 0 ratings
1 star 2 stars 3 stars 4 stars 5 stars
comments

Time Is Ticking Away Tab

   
Time is Ticking Away by De Heideroosjes
Tabbed by Vincent Slot - vincentslot@gmail.com

PM = Palm Mute

Intro/Verse Guitar1:

e|-------------------------------------------------------------|
B|-------------------------------------------------------------|
G|-11-11-1111-11-1111-11-1111-11-------------------------------|
D|-9--9--9-9--9--9-9--9--9-9--9--11-11-1111-11-1111-11-1111-11-|
A|-------------------------------9--9--9-9--9--9-9--9--9-9--9--|
E|-------------------------------------------------------------|
PM      . .     . .     . .           . .     . .     . .
[ Tab from: http://www.guitartabs.cc/tabs/h/heideroosjes/time_is_ticking_away_tab.html ]
Intro Guitar2 (and play these notes quietly in the Verse):
e|---------2------------|
B|-0-4-5-4----0-4-5-4-2-|
G|----------------------|
D|----------------------|
A|----------------------|
E|----------------------|

Chorus:
e|----------------------|
B|----------------------|
G|-4--------11-11-11-11-|< don't play these F#'s the last time!
D|-4---6-4--11-11-11-11-|
A|-2---6-4--9--9--9--9--|
E|-----4-2--------------|

Post-Chorus:
e|---------------------------------|
B|---------------------------------|
G|-11-11-----8-9-11---------9-11---|
D|-11-11-9-9-8-9-11-9-9-6-6-9-11-9-|
A|-9--9--9-9-6-7-9--9-9-6-6-7-9--9-|
E|-------7-7--------7-7-4-4------7-|

2nd Verse (each chord 16x):
e|-------|
B|--*----|
G|-4----*|
D|-4---4-|
A|-2---4-|
E|-----2-|

Chorus

Post-Chorus

And that's it! You can figure out how many times you play each riff
yourself, that won't be a big problem.

Vincent
Comments