Heideroosjes - Our Own Vietnam Chords & Tabs

 

Our Own Vietnam Chords & Tabs

Heideroosjes Chords & Tabs

Version: 1 Type: Tab 0 ratings
1 star 2 stars 3 stars 4 stars 5 stars
comments

Our Own Vietnam Tab

HEIDEROOSJES
OUR OWN VIETNAM

Fig. 1
E|-------------------------------------|
B|-------------------------------------|
G|-5-----------------------------------|
D|-5-5-3--3-3-3-3-3--5-3-2--2-2-2-2-2--| 
A|-3-5-3--3-3-3-3-3--5-3-2--22-2-2-2--|
E|---3-1--1-1-1-1-1--3-1-0--0-0-0-0-0--|

Fig. 2
E|------------------|
B|------------------|
G|------------------|
D|-0---0---0-----3--|
A|---3---3---3-2----|
E|------------------|
[ Tab from: http://www.guitartabs.cc/tabs/h/heideroosjes/our_own_vietnam_tab.html ]
Fig. 3
E|----------------------------------------------|
B|----------------------------------------------|
G|-3-x-x-x-x-x-x5-x-x-x-x-x-x------------------|
D|-3-x-x-x-x-x-x-5-x-x-x-x-x-x----0---0---0---0-|
A|-1-x-x-x-x-x-x-3-x-x-x-x-x-x--3---3---3---3---|
E|----------------------------------------------|

Fig. 4
E|--------|
B|--------|
G|-5------|
D|-5-5-3--|
A|-3-5-3--|
E|---3-1--|

Fig. 5
E|----|
B|----|
G|----|
D|-3--|
A|-3--|
E|-1--|

Fig. 1 - 2x
Fig. 2 - 4x
Fig. 1 - 2x
Fig. 2 - 2x
Fig. 1 - 2x
Fig. 3 - 4x
Fig. 1 - 2x
Fig. 2 - 1x
Fig. 1 - 2x
Fig. 4 - 4x
Fig. 5 - 1x
Comments