Heideroosjes - Nothings Wrong Chords & Tabs

 

Nothings Wrong Chords & Tabs

Heideroosjes Chords & Tabs

Version: 1 Type: Tab 0 ratings
1 star 2 stars 3 stars 4 stars 5 stars
comments

Nothings Wrong Tab

Album:Fast forward
Song: Nothings wrong
Band: Heideroosjes
Email: Greenday_rhcp2002@yahoo.com

*= Harmonic feedback
~=Let ring

Intro/main riff(Really fast Playing)
|------------------------------------------------|
|------------------------------------------------|
|-10-10-10-10-10-10-10-10--6-6-6-6-6-6-6-6--8----|
|-10-10-10-10-10-10-10-10--6-6-6-6-6-6-6-6--8----|
|--8--8--8--8--8--8--8--8--4-4-4-4-4-4-4-4--6x16-|
|------------------------------------------------|x6


|-------|
|-------|
|-10*~~-|
|-10*~~-|
|--8*~~-| x1
|-------|


|----------------------------------13*-14*-|
|------------------------------------------|
|-10-10-10---10-10-10-10-10-10-------------|
|-10-10-10---10-10-10-10-10-10-------------|
|--8--8--8----8--8--8--8--8--8-------------|
|------------------------------------------|x3


|----------------------------------14*~~-|
|----------------------------------------|
|-10-10-10---10-10-10-10-10-10-----------|
|-10-10-10---10-10-10-10-10-10-----------|
|--8--8--8----8--8--8--8--8--8-----------|
|----------------------------------------|x1


Intro/main riff
|------------------------------------------------|
|------------------------------------------------|
|-10-10-10-10-10-10-10-10--6-6-6-6-6-6-6-6--8----|
|-10-10-10-10-10-10-10-10--6-6-6-6-6-6-6-6--8----|
|--8--8--8--8--8--8--8--8--4-4-4-4-4-4-4-4--6x16-|
|------------------------------------------------|x4


|-------|
|-------|
|-10*~~-|
|-10*~~-|
|--8*~~-| x1
|-------|
[ Tab from: http://www.guitartabs.cc/tabs/h/heideroosjes/nothings_wrong_tab.html ]
|----------------------------------13*-14*-|
|------------------------------------------|
|-10-10-10---10-10-10-10-10-10-------------|
|-10-10-10---10-10-10-10-10-10-------------|
|--8--8--8----8--8--8--8--8--8-------------|
|------------------------------------------|x3

|------------------------------------13*-14*~~~~-|
|------------------------------------------------|
|-10-10-10---10-10-10-10-10-10--10---------------|
|-10-10-10---10-10-10-10-10-10--10---------------|
|--8--8--8----8--8--8--8--8--8---8---------------|
|------------------------------------------------|x1

Bass solo
|--------------------------------------|
|------8-6--6-8-8-6-------6-8--9--9--9-|
|-6-8----------------6-8---------------|
|--------------------------------------|


After bass solo
|----------------------------------13*-14*--|
|-------------------------------------------|
|-10-10-10-10*-10-10-10-10-10-10------------|
|-10-10-10-10*-10-10-10-10-10-10------------|
|--8--8--8--8*--8--8--8--8--8--8------------|
|-------------------------------------------|x4

|----------------------------------------|
|----------------------------------------|
|-10-10-10-10*-10-10-10-10-10-10--10--11-|
|-10-10-10-10*-10-10-10-10-10-10--10--11-|
|--8--8--8--8*--8--8--8--8--8--8---8---9-|
|----------------------------------------|x3

End
|----------------------------------|
|----------------------------------|
|-10-10-10-10*-10-10-10-10-10-10~--|
|-10-10-10-10*-10-10-10-10-10-10~--|
|--8--8--8--8*--8--8--8--8--8--8~--|
|----------------------------------|x1

Timing isnt represented, Listen to song for that.
ANY comments to email.Cheers
Comments