Heideroosjes - Not So Long Song Chords & Tabs

 

Not So Long Song Chords & Tabs

Heideroosjes Chords & Tabs

Version: 1 Type: Bass Tab 0 ratings
1 star 2 stars 3 stars 4 stars 5 stars
comments

Not So Long Song Bass Tab

Heideroosjes - Not So Long Song
Bass: Fred Houben
tabber: RedundantGuy

it's the easiest song in the world

[ Tab from: http://www.guitartabs.cc/tabs/h/heideroosjes/not_so_long_song_btab.html ]
G|--------------------||--------------------||--------------------|
B|------3-3-----------||------3-3-----------||------3-3-----------|
A|--3-3---------3-3---||--3-3---------3-3---||--3-3---------3-3---|
E|----------3-3-------||----------3-3-------||----------3-3-------|


G|--------------------||--------------------||--------------------|
B|------3-3-----------||------3-3-----------||------3-3-----------|
A|--3-3---------3-3---||--3-3---------3-3---||--3-3---------3-3---|
E|----------3-3-------||----------3-3-------||----------3-3-------|


G|--------------------|
B|------3-3-----------|
A|--3-3---------3-3---|
E|----------3-3-------|
Comments