Heideroosjes - Kutlied Chords & Tabs

 

Kutlied Chords & Tabs

Heideroosjes Chords & Tabs

Version: 1 Type: Tab 0 ratings
1 star 2 stars 3 stars 4 stars 5 stars
comments

Kutlied Tab

   
Kutlied
-------


Het hele nummer bestaat eigenlijk gewoon uit G E C en D

       G     E     C     D
e|-----3-----0-----0-----2-----
B|-----0-----0-----1-----3-----
G|-----0-----1-----0-----2-----
D|-----0-----2-----2-----0-----
A|-----2-----2-----3-----0-----
E|-----3-----0-----0-----0-----

intro:

G - E - C - D

couplet:
[ Tab from: http://www.guitartabs.cc/tabs/h/heideroosjes/kutlied_tab.html ]
e|-----------------------------------------------------------------
B|-----------------------------------------------------------------
G|----------------------------------5-5-5-5-5-5-5-5-7-7-7-7-7-7-7-7
D|--5-5-5-5-5-5-5-5-2-2-2-2-2-2-2-2-5-5-5-5-5-5-5-5-7-7-7-7-7-7-7-7
A|--5-5-5-5-5-5-5-5-2-2-2-2-2-2-2-2-3-3-3-3-3-3-3-3-5-5-5-5-5-5-5-5
E|--3-3-3-3-3-3-3-3-0-0-0-0-0-0-0-0--------------------------------
  PM...............................................................


Refrein:

e|-----------------------------------------------------------------
B|-----------------------------------------------------------------
G|----------------------------------5-5-5-5-5-5-5-5-7-7-7-7-7-7-7-7
D|--5-5-5-5-5-5-5-5-2-2-2-2-2-2-2-2-5-5-5-5-5-5-5-5-7-7-7-7-7-7-7-7
A|--5-5-5-5-5-5-5-5-2-2-2-2-2-2-2-2-3-3-3-3-3-3-3-3-5-5-5-5-5-5-5-5
E|--3-3-3-3-3-3-3-3-0-0-0-0-0-0-0-0--------------------------------

Comments