Heideroosjes - Iedereen Is Gek Behalve Jij Chords & Tabs

 

Iedereen Is Gek Behalve Jij Chords & Tabs

Heideroosjes Chords & Tabs

Version: 1 Type: Tab 0 ratings
1 star 2 stars 3 stars 4 stars 5 stars
comments

Iedereen Is Gek Behalve Jij Tab

I think this tab is good I hope it is! And else you just have to do it better!! Ha!

e---------------------- 
B---------------------- 
G-----8-8-10-10--------  
D-7-7-8-8-10-10-10-10-- 
A-7-7-6-6--8--8-10-10-- 
E-5-5------------8--8-- 
  pm.................

e----------------------- 
B-----------------------
G-----8-8-10-10--------* 
D-7-7-8-8-10-10-10--10-* 
A-7-7-6-6--8--8-10--10-- 
E-5-5------------8---8-- 
  pm............ ^tap^tap <------- ook palm mute

Refrein
[ Tab from: http://www.guitartabs.cc/tabs/h/heideroosjes/iedereen_is_gek_behalve_jij_tab.html ]
e----------------------
B----------------------
G---------8-8-10-10----
D-7-7-7-7-8-8-10-10----
A-7-7-7-7-6-6--8--8----
E-5-5-5-5--------------

3X and repeat

e---------------------------
B---------------------------
G---------8-8-10-10-10-10---
D-7-7-7-7-8-8-10-10-10-10---
A-7-7-7-7-6-6--8--8--8--8---
E-5-5-5-5-------------------

Bridge

e----------------------
B----------------------
G----------------------
D-6/7-6/7-6/7-7-7------
A-6/7-6/7-6/7-7-7------
E-4/5-4/5-4/5-5-5------
Comments