Heideroosjes - Iedereen Is Gek Behalve Jij Chords & Tabs

 

Iedereen Is Gek Behalve Jij Chords & Tabs

Heideroosjes Chords & Tabs

Version: 1 Type: Bass Tab 0 ratings
1 star 2 stars 3 stars 4 stars 5 stars
comments

Iedereen Is Gek Behalve Jij Bass Tab

Heideroosjes - Iedereen is gek(behalve jij)!
album:Schizo
tabbed by:Sander Slot

Intro:
E|--33-33-33-3333----|

Verse:
G|-------------------------------------------------------|
D|-------------------------------------------------------|    8 times
A|-------5-5-57-7-73-3-3------------5-5-57-7-7---5--3|
E|-3-3-3------------------------3-3-3--------------------|   

[ Tab from: http://www.guitartabs.cc/tabs/h/heideroosjes/iedereen_is_gek_behalve_jij_btab.html ]
Chorus: 1st part 2x
G-------------------------|------------------------------|
D-------------------------|------------------------------|    2 times
A-------------55555577---|----------------555555--77-5--|                  
E-33333333----------------|------333333------------------|                     



Bridge:
G--------------------------------------------------------|
D--------------------------------------------------------|
A--------------------------------------------------------|   2times
E-0h1111111----0h1111111----0h1111111----0h1111111-------|

Outro:
G--------------------------------------------------------|
D--------------------------------------------------------|
A----------555555-77-------------555555-77---------------|
E-333333----------------333333---------------------------|


Order:
Intro
Verse
Chorus
Verse
Chorus
Intro
Bridge
Chorus
Outro

ROCK ON!
Rate Please!
Comments