Heideroosjes - Break The Public Peace Chords & Tabs

 

Break The Public Peace Chords & Tabs

Heideroosjes Chords & Tabs

Version: 1 Type: Bass Tab

Break The Public Peace Bass Tab

   
Fig. 1

G-----------|
D-----------|
A-333-555---|
E---------5-|

Fig. 2

G--------------------|
D--------------------|
A----------3333-5555-|
E-55555555-----------|

Fig. 3

G--------------------------------------|
D--------------------------------------|
A-------------------33-333-333-333-3-2-|
E-55555555-33333333--------------------|

Fig. 4
[ Tab from: http://www.guitartabs.cc/tabs/h/heideroosjes/break_the_public_peace_btab.html ]
G-------------------|
D-------------------|
A-------------------|
E-55555555-33333333-|

Fig. 5

G--------------------|
D--------------------|
A-33-333-333-333-3-2-|
E--------------------|

Fig. 6

G----------------------------|
D----------------------------|
A----------------------33-55-|
E-355-55-035-55-035-55-------|

Fig.1 4x
Fig.2 4x
Fig.3 2x
Fig.4 4x
Fig.5 1x
Fig.1 4x
Fig.2 4x
Fig.3 2x
Fig.4 4x
Fig.5 1x
Fig.6 8x
Fig.1 2x