Hed Pe - Swan Dive Chords & Tabs

 

Swan Dive Chords & Tabs

Hed Pe Chords & Tabs

Version: 2 Type: Tab 0 ratings
1 star 2 stars 3 stars 4 stars 5 stars
comments

Swan Dive Tab

   
          (hed)P.E.
          **Track 9 Swan Dive
          
          Verse, gtr1 gtr2
          (-5-----------------
          (-5-------------5---
          (---------------5---
          (-------------------
          (-------------------
          (-------------------
          (-------------------
          
          (---5-------------0- (with volume roll)
          (---5-------------0-
          (-------------------
          (-------------------
          (-------------------
          (-------------------
          (-------------------
          
          Pre-chorus, gtr1 gtr2
          (-------------------*--------------*---------
          (-------------------*--------------*---------
          (-------------------*--------------*---------
          (-------------------*-6b7r6b7r6-b7-*---------
          (-11-12---7-7-6-6-6-*--------------*-5-5-5-5-
          (--9-10---5-5-4-4-4-*--------------*-3-3-3-3-
          (-------------------*--------------*-.-.-.-.-
          
          Chorus, gtr1 gtr1
          (------------------------------------
          (------------------------------------
          (------------------------------------
          (------------------------------------
          (------------------------------------
          (------------------------------------
          (-0-9-10--10-6-6b-3-3-3-3-3b-0-0-0-0-
          
          Interlude 1, gtr1 gtr2
          (----------------------------
          (----------------------------
          (----------------------------
          (------4--------3----------3-
          (----------------------------
          (----------------------------
          (-3-0-----0-3-0----0-2-0-3---
          
          Interlude 2, gtr1 gtr2
          (-------------------------------------------------
          (-------------------------------------------------
          (-14-15-14----14-15-14----14-15-14----14-15-14----
          (----------12----------15----------11----------11-
          (-------------------------------------------------
          (-------------------------------------------------
          (-------------------------------------------------
          
          (--------------------------------------------
          (--------------------------------------------
          (--------------------------------------------
          (--7-7-7-7-7/10-10-10-10-10/6-6-6-6-6-6-6-6--
          (--5-5-5-5-5/-8--8--8--8--8/4-4-4-4-4-4-4-4--
          (--------------------------------------------
          (--------------------------------------------
[ Tab from: http://www.guitartabs.cc/tabs/h/hed_pe/swan_dive_tab_ver_2.html ]
Comments