Hed Pe - Swan Dive Chords & Tabs

 

Swan Dive Chords & Tabs

Hed Pe Chords & Tabs

Version: 1 Type: Bass Tab 0 ratings
1 star 2 stars 3 stars 4 stars 5 stars
comments

Swan Dive Bass Tab

Artist: (Hed) PE
Song: Swan Dive
Album: Broke

Intro

(7) - Play note every in riff every second time

G|--------------------------------------------------------------|
D|--------------------------------------------------------------|
A|-11-12--------------------------------------------------------|
E|-------13-----10-10-10----(7)-(7)-(7)-------------------------|
B|--------------------------------------------------------------|

Bridge
[ Tab from: http://www.guitartabs.cc/tabs/h/hed_pe/swan_dive_btab.html ]
G|--------------------------------------------------------------|
D|--------------------------------------------------------------|
A|------4---5---------------------------------------------------|
E|--------------5--5--5------4--4--4----------------------------|
B|--------------------------------------------------------------|

Chorus

G|--------------------------------------------------------------|
D|--------------------------------------------------------------|
A|--------------------------------------------------------------|
E|---4--5-------------------------------------------------------|
B|----------6-----3--3--3---0--0--0-----------------------------|

Order

Verse
Bridge
Chorus
Verse
Bridge
Chorus
Middle - just one note (2)
Verse
Bridge
Chorus
Outro - same as middle

This song kicks ass, although i think the chorus riff
sounds a bit like my own summer by the deftones, but
it still rocks pretty damned hard.  Any comments etc.. sucker157@hotmail.com

Comments