Hed Pe - Suck It Up Chords & Tabs

 

Suck It Up Chords & Tabs

Hed Pe Chords & Tabs

Version: 1 Type: Tab 0 ratings
1 star 2 stars 3 stars 4 stars 5 stars
comments

Suck It Up Tab

   
Drop D on E
[ Tab from: http://www.guitartabs.cc/tabs/h/hed_pe/suck_it_up_tab.html ]
Intro > = Hammer on
----------------------------------------------------------------- X2
-----------------------------------------------------------------
-----------------------------------------------------------------
-----0->--3-------0->--6-----0->--3------------------------------
-----0->--3-------0->--6-----0->--3------------------------------
-----0->--3-------0->--6-----0->--3------------------------------


--------------------------------------------------------------------
--------------------------------------------------------------------
-------------------------------------------------------------------- 
-----0->--3-------0->--6-----0->--3-----0-->--6---------------------
-----0->--3-------0->--6-----0->--3-----0-->--6---------------------
-----0->--3-------0->--6-----0->--3-----0-->--6---------------------
Comments