Hed Pe - Killing Time Chords & Tabs

 

Killing Time Chords & Tabs

Hed Pe Chords & Tabs

Version: 1 Type: Bass Tab 0 ratings
1 star 2 stars 3 stars 4 stars 5 stars
comments

Killing Time Bass Tab

Artist: (hed) p.e
Song:	Killing time
Album:	Broke
Tabbed:	Adam Pickering
	renegade1212@hotmail.com

Please send me any corrections as this is my first tab.

G|--------------------------------------------|
D|--------------------------------------------|
A|--------------------------------------------|
E|----5-/-7b-------------5-/-7b---------------|
B|-------------0-----------------0-0-0-0-0-0--|
[ Tab from: http://www.guitartabs.cc/tabs/h/hed_pe/killing_time_btab.html ]
G|--------------------------------------------|
D|--------------------------------------------|
A|--------------------------------------------|
E|--------------------------------------------|
B|----0---2b---0---------0---2b--0-0-0-0-2-0--|

G|-----------------------------|
D|-----------------------------|
A|-----------------------------|
E|-----------------------------|
B|----0-0--2-2--3-3--5-5-------|

====
Comments