Hed Pe - Blackout Chords & Tabs

 

Blackout Chords & Tabs

Hed Pe Chords & Tabs

Version: 1 Type: Tab 0 ratings
1 star 2 stars 3 stars 4 stars 5 stars
comments

Blackout Tab

(Hed) Pe - Blackout


Intro

d#---------------------------------------------
A#---------------------------------------------
F#---------------------------------------------  x2
C#--0-0-9h10-10-10-10-0---0-0-9h10-10-10-10-0--
G#--0-0-9h10-10-10-10-0---0-0-9h10-10-10-10-0--
D#--0-0-9h10-10-10-10-0---0-0-9h10-10-10-10-0--


Verses
just listen to get the rythm

   	   pm...........................
	d#-------------------------------
	A#-------------------------------
Guit 1	F#-------------------------------
	C#--0-0-0---0--0-0---0-0--0-0-0--
	G#--0-0-0---0--0-0---0-0--0-0-0--
	D#--0-0-0---0--0-0---0-0--0-0-0--

after a while :
[ Tab from: http://www.guitartabs.cc/tabs/h/hed_pe/blackout_tab.html ]
	d#-------------------------------
	A#-------------------------------
Guit 2	F#--5-5-5-5-5-5-5-5-5-5-5-5-5-5--
	C#-------------------------------
	G#-------------------------------
	D#-------------------------------


Chorus

d#-----------------------------------------
A#-----------------------------------------
F#-----------------------------------------  x3
C#--9h10-10-10-10-0---0-0-9h10-10-10-10-0--
G#--9h10-10-10-10-0---0-0-9h10-10-10-10-0--
D#--9h10-10-10-10-0---0-0-9h10-10-10-10-0--


d#-------------------
A#-------------------
F#-------------------
C#--333333-6666-555--
G#--333333-6666-555--
D#--333333-6666-555--


Bridge

d#-----------------------------------------------------
A#-----------------------------------------------------
F#-----------------------------------------------------
C#--5h6-6-6-6-6-0--6-6-6-0-0-5h6-6-6-6-6-0--6-6-6-0-0--
G#--5h6-6-6-6-6-0--6-6-6-0-0-5h6-6-6-6-6-0--6-6-6-0-0--
D#--5h6-6-6-6-6-0--6-6-6-0-0-5h6-6-6-6-6-0--6-6-6-0-0--


any remarks, please mail me: plugin79@hotmail.com
Comments