Hed Pe - Bartender Chords & Tabs

 

Bartender Chords & Tabs

Hed Pe Chords & Tabs

Version: 2 Type: Tab 0 ratings
1 star 2 stars 3 stars 4 stars 5 stars
comments

Bartender Tab

(hed) P.E. - Bartender
Tabbed by: Sean Stinson

Here's another popular radio
song tabbed by me.

Main riff:
|-------------------|
|-------------------|
|-------------------|
|-0--------0-0-6-0--|
|-0-5~~~---0-0-6-0--|
|-0-----6~-0-0-6-0--|

Verse:
|---------------------------------|
|--------15-------------14--------|
|-----14--------------13----------|
|-12~-------12br--11~------11br---|
|---------------------------------|
|---------------------------------|

|-----------------------|
|-------13----------10--|
|-----12------------9---|
|-10~------10br--7------|
|-----------------------|
|-----------------------|
[ Tab from: http://www.guitartabs.cc/tabs/h/hed_pe/bartender_tab_ver_2.html ]
Bridge: Listen to the song for the rhythm.
|-------------------0-----0-----|
|-------------------0-----0-----|
|-------------------0-----0-----|
|-6-6-6-6-6-6---5-5---3-3-------| Then main riff x4.
|-6-6-6-6-6-6---5-5---3-3-------|
|-6-6-6-6-6-6---5-5---3-3-------|

Quiet part after bridge:
|----------------------------|
|----------------------------|
|----15----14-----13----10---|
|----14----13-----12----9----|
|-12-----11----10-----7------|
|----------------------------|

And the outro: Alternate between these
chords. Listen to song for rhythm.
|-------|
|-------|
|-------|
|-12--9-|
|-12--9-|
|-12--9-|


-----------

Surprisingly complicated for a hed PE song.

Next: Good Charlotte - Little Things

Ta,
Sean Stinson
Comments