Hed - Swan Dive Chords & Tabs

 

Swan Dive Chords & Tabs

Hed Chords & Tabs

Version: 1 Type: Tab 0 ratings
1 star 2 stars 3 stars 4 stars 5 stars
comments

Swan Dive Tab

(hed)P.E.          Tuning: Dropped D
"Swan Dive"        
Broke             There havent been any gtr. tabs
                  for this song yet so here.

 
 [intro]Clean 
 (its really with a keyboard but you dont have a keyboard so shutup)
e|-12--8-10-7b-----------------------------------------------------|
B|--------------5b-12--8-10-7b-------------------------------------|
G|-----------------------------------------------------------------|
D|-----------------------------------------------------------------|
A|-----------------------------------------------------------------|
D|-----------------------------------------------------------------|
 
 [verse]slightly distorted (listen to cd for timing)All upstroke          
e|-5--------5--------5--------5---------5--------5----5------------|
B|-5--------5--------5--------5---------5--------5------5----------|
G|--------------------------------------------------------5--------|
D|-----------------------------------------------------------------|
A|-----------------------------------------------------------------|
D|-----------------------------------------------------------------|

 [pre-chorus] Distorted
e|-----------------------------------------------------------------|
B|-----------------------------------------------------------------|
G|-5/7--7-7-7---------------------5/7--7-7-7-----------------------|
D|-5/7--7-7-7--7-7-7-7-6-6-6-6----5/7--7-7-7--7-7-7-7-6-6-6-6------|
A|-3/5--5-5-5--7-7-7-7-6-6-6-6----3/5--5-5-5--7-7-7-7-6-6-6-6--5b--|
D|-------------7-7-7-7-6-6-6-6----------------7-7-7-7-6-6-6-6------|

e|-----------------------------------------------------------------|
B|-----------------------------------------------------------------|
G|-5/7--7-7-7---------------------5/7--7-7-7-----------------------|
D|-5/7--7-7-7--7-7-7-7-6-6-6-6----5/7--7-7-7--7-7-7-7-6-6-6-6-6-6-6|
A|-3/5--5-5-5--7-7-7-7-6-6-6-6----3/5--5-5-5--7-7-7-7-6-6-6-6-6-6-6|
D|-------------7-7-7-7-6-6-6-6----------------7-7-7-7-6-6-6-6-6-6-6|
                                                      p.m.---------
              
 [chorus]                                                        x2
e|-----------------------------------------------------------------|
B|-----------------------------------------------------------------|
G|-----------------------------------------------------------------|
D|-------0-3-3/6-6-6-6-6-3-3-3-3--------0-3-3/6-6-6-6-6-0-0-0-0----|
A|-5-3-0-0-3-3/6-6-6-6-6-3-3-3-3--5-3-0-0-3-3/6-6-6-6-6-0-0-0-0----|
D|-------0-3-3/6-6-6-6-6-3-3-3-3--------0-3-3/6-6-6-6-6-0-0-0-0----|

[verse]Clean (listen to cd for timing)All upstroke          
e|-5--------5--------5--------5---------5--------5----5------------|
B|-5--------5--------5--------5---------5--------5------5----------|
G|--------------------------------------------------------5--------|
D|-----------------------------------------------------------------|
A|-----------------------------------------------------------------|
D|-----------------------------------------------------------------|

[pre-chorus] Distorted
e|-----------------------------------------------------------------|
B|-----------------------------------------------------------------|
G|-5/7--7-7-7---------------------5/7--7-7-7-----------------------|
D|-5/7--7-7-7--7-7-7-7-6-6-6-6----5/7--7-7-7--7-7-7-7-6-6-6-6------|
A|-3/5--5-5-5--7-7-7-7-6-6-6-6----3/5--5-5-5--7-7-7-7-6-6-6-6--5b--|
D|-------------7-7-7-7-6-6-6-6----------------7-7-7-7-6-6-6-6------|

e|-----------------------------------------------------------------|
B|-----------------------------------------------------------------|
G|-5/7--7-7-7---------------------5/7--7-7-7-----------------------|
D|-5/7--7-7-7--7-7-7-7-6-6-6-6----5/7--7-7-7--7-7-7-7-6-6-6-6-6-6-6|
A|-3/5--5-5-5--7-7-7-7-6-6-6-6----3/5--5-5-5--7-7-7-7-6-6-6-6-6-6-6|
D|-------------7-7-7-7-6-6-6-6----------------7-7-7-7-6-6-6-6-6-6-6|
                                                      p.m.---------
[ Tab from: http://www.guitartabs.cc/tabs/h/hed/swan_dive_tab.html ]
[chorus]                                                         x4
e|-----------------------------------------------------------------|
B|-----------------------------------------------------------------|
G|-----------------------------------------------------------------|
D|-------0-3-3/6-6-6-6-6-3-3-3-3--------0-3-3/6-6-6-6-6-0-0-0-0----|
A|-5-3-0-0-3-3/6-6-6-6-6-3-3-3-3--5-3-0-0-3-3/6-6-6-6-6-0-0-0-0----|
D|-------0-3-3/6-6-6-6-6-3-3-3-3--------0-3-3/6-6-6-6-6-0-0-0-0----|
              
 [break fig.1]                                                   x2
e|-----------------------------------------------------------------|
B|-----------------------------------------------------------------|
G|-----------------------------------------------------------------|
D|-----3-------3----------------3-------3-----6--------------------|
A|-----------------------------------------------------------------|
D|-3^0---0-3^0---0-3^0-6^0--3^0---0-3^0---0-3---6------------------|
                                                         
 [break fig .2]                                                  x2
e|-----------------------------------------------------------------|
B|-----------------------------------------------------------------|
G|-----------------------------------------------------------------|
D|-3-0-3b-0-3-0-3b-0-3-0-6-0--3-0-3b-0-3-0-3b-0-3-0-6--------------|
A|-3-0----0-3-0----0-3-0-6-0--3-0----0-3-0----0-3-0-6--------------|
D|-3^0----0-3^0----0-3^0-6^0--3^0----0-3^0----0-3^0-6--------------|

e|-12--8-10-7b-----------------------------------------------------|
B|--------------5b-12--8-10-7b-------------------------------------|
G|-----------------------------------------------------------------|
D|-----------------------------------------------------------------|
A|-----------------------------------------------------------------|
D|-----------------------------------------------------------------|

e|-5--------5--------5--------5---------5--------5----5------------|
B|-5--------5--------5--------5---------5--------5------5----------|
G|--------------------------------------------------------5--------|
D|-----------------------------------------------------------------|
A|-----------------------------------------------------------------|
D|-----------------------------------------------------------------|

  Slightly distorted
e|-----------------------------------------------------------------|
B|-1-2-2-2-1-2-2-2-----------------1-2-2-2-1-2-2-2-----------------|
G|-----------------1-2-2-2-1-2-2-2-----------------1-2-2-2-1-2-2-2-|
D|-----------------------------------------------------------------|
A|-----------------------------------------------------------------|
D|-----------------------------------------------------------------|
   p.m.-----------------------------------------------------------
                                                     Phaser fx
e|-----------------------------------------------------------------|
B|-1-2-2-2-1-2-2-2-----------------1-2-2-2-1-2-2-2-----------------|
G|-----------------1-2-2-2-1-2-2-2-----------------1/2b------------|
D|-----------------------------------------------------------------|
A|-----------------------------------------------------------------|
D|-----------------------------------------------------------------|
   p.m.-------------------------------------------

[chorus]                                                         x4
e|-----------------------------------------------------------------|
B|-----------------------------------------------------------------|
G|-----------------------------------------------------------------|
D|-------0-3-3/6-6-6-6-6-3-3-3-3--------0-3-3/6-6-6-6-6-0-0-0-0----|
A|-5-3-0-0-3-3/6-6-6-6-6-3-3-3-3--5-3-0-0-3-3/6-6-6-6-6-0-0-0-0----|
D|-------0-3-3/6-6-6-6-6-3-3-3-3--------0-3-3/6-6-6-6-6-0-0-0-0----|

[outro]                                                          x4
e|-----------------------------------------------------------------|
B|-----------------------------------------------------------------|
G|-----10-------10----------------10-------10----------------------|
D|-3-0--x-0-3-0--x-0-3-0-6-0--3-0--x-0-3-0--x-0-3-0-6--------------|
A|-3-0--8-0-3-0--8-0-3-0-6-0--3-0--8-0-3-0--8-0-3-0-6--------------|
D|-3^0----0-3^0----0-3^0-6^0--3^0----0-3^0----0-3^0-6--------------|

 Tabbed by KingofWalrus
 Shaggy2vi@aol.com

 [lyrics]"Swan Dive"        

I climb, hand over hand, closing my eyes
Too scared to look down 
I climb, hand over hand
Putting distance between I and  I and the ground

I  get to the top
I stand on the edge
I look to the sky, and say all my prayers

(Chorus)
What could be better than a swan dive into the asphalt
I don't know, nothing can be better than a swan dive into the asphalt

You should ask somebody,. Cause I've got nothing to lose tonight
I misplaced my life tonight, chased all my friends away tonight
I don't say the right things
I don't look the right way
That's just not me
I listen to my music too loud, a watch too much damn TV

Tell me, who can control the flood?
No one
Where are the angels?
Nowhere
Where's the compassion?
Nowhere
Who knows the truth?
No one
Who will believe in me?
No one
Who will stand by me?
No one
Who will fly with me?
No one


I climb, hand over hand, closing my eyes
Too scared to look down 
I climb, hand over hand
Putting distance between I and  I and the ground

I get to the top, stand on the edge, look to the sky

There's nothing left for me.






Comments