Heaven Shall Burn - Weapon They Fear Chords & Tabs

 

Weapon They Fear Chords & Tabs

Heaven Shall Burn Chords & Tabs

Version: 1 Type: Tab 0 ratings
1 star 2 stars 3 stars 4 stars 5 stars
comments

Weapon They Fear Tab

   
Band:Heaven Shall Burn
Song:The Weapon They Fear
Album:(Unknown)
Tuning:Drop-C
Tabber:Christian Mican

Intro
     -|-------|------------|------------|------------|------------|
     -|-------|------------|------------|------------|------------|
     -|-------|------------|------------|------------|------------|
Gtr 1-|-------|-0--3-1-0-1-|--------3-0-|----3-1-0-3-|------------|
     -|-000-0-|-0--3-1-0-1-|--------3-0-|----3-1-0-3-|---------11-|
     -|-000-0-|-0--3-1-0-1-|--------3-0-|----3-1-0-3-|---------11-|
        ... .                                                  ..  

             -|------------|------------|------------|------------|
             -|151515151515|161616161616|151515151515|171717161616|
             -|181818181818|191919191919|181818181818|202020191919|
Gtr 2        -|------------|------------|------------|------------|
             -|------------|------------|------------|------------|
             -|------------|------------|------------|------------|
     

Stomp Riff
     -|--------------------------------|-------------------------------|
     -|--------------------------------|-------------------------------|
     -|--------------------------------|-------------------------------|
     -|--------------------------------|-------------------------------|
     -|--------------------------------|-------------------------------|
     -|-1-000-0-000-3-000-0-000-1-00-3-|-1-000-0-000-3-00-444333666444-|
          ...   ...   ...   ...   ..       ...   ...   .. ............

Verse
     -|--------------------------|--------------------------| 
     -|--------------------------|--------------------------|
     -|--------------------------|--------------------------|
     -|--------------------------|--------------------------|
     -|-6p5---5-----6p5---5----8-|-6p5---5------------------|
     -|-----0---0-0-----0---00---|-----0---0-0-444333666444-|
            .           .   ..         .       ............

Fill
     -|-----------------|
     -|-----------------|
     -|-----------------|
     -|-----------------|
     -|-0-0-0-0-000-0-0-|
     -|-0-0-0-0-000-0-0-|
        . . . . ... . . 

Pre-Chorus
Part 1
     -|-----------------------------|--------------------------------|
     -|-----------------------------|--------------------------------|
     -|-----------------------------|--------------------------------|
Gtr 1-|-----------------------------|-------101010---101010888666555-|
     -|---------8---------888777555-|-888888------888----------------|
     -|-000-000---000-000-----------|--------------------------------|
        ... ...   ... ...
     -|-----------------------------|--------------------------------|
     -|-----------------------------|--------------------------------|
     -|-----------------------------|--------------------------------|
Gtr 2-|---------7---------777555333-|-------101010---101010888666555-|
     -|-----------------------------|-888888------888----------------|
     -|-000-000---000-000-----------|--------------------------------|
        ... ...   ... ...
Part 2
     -|-----------------------------|--------------------------------------|
     -|-----------------------------|--------------------------------------|
     -|-----------------------------|--------------------------------------|
Gtr 1-|-----------------------------|-------101010---888101010111111101010-|
     -|---------8---------888777888-|-888888------888----------------------|
     -|-000-000---000-000-----------|--------------------------------------|
        ... ...   ... ...
     -|-----------------------------|--------------------------------------|
     -|-----------------------------|--------------------------------------|
     -|-----------------------------|--------------------------------------|
Gtr 2-|---------7---------777555777-|-------101010---888101010111111101010-|
     -|-----------------------------|-888888------888----------------------|
     -|-000-000---000-000-----------|--------------------------------------|
        ... ...   ... ...

Stomp Riff
     -|--------------------------------|-------------------------------|
     -|--------------------------------|-------------------------------|
     -|--------------------------------|-------------------------------|
     -|--------------------------------|-------------------------------|
     -|--------------------------------|-------------------------------|
     -|-1-000-0-000-3-000-0-000-1-00-3-|-1-000-0-000-3-00-444333666444-|
          ...   ...   ...   ...   ..       ...   ...   .. ............

Verse
     -|--------------------------|--------------------------|
     -|--------------------------|--------------------------|
     -|--------------------------|--------------------------|
     -|--------------------------|--------------------------|
     -|-6p5---5-----6p5---5----8-|-6p5---5------------------|
     -|-----0---0-0-----0---00---|-----0---0-0-444333666444-|
            .           .   ..         .       ............
[ Tab from: http://www.guitartabs.cc/tabs/h/heaven_shall_burn/weapon_they_fear_tab.html ]
Pre-Chorus
Part 1
     -|-----------------------------|--------------------------------|
     -|-----------------------------|--------------------------------|
     -|-----------------------------|--------------------------------|
Gtr 1-|-----------------------------|-------101010---101010888666555-|
     -|---------8---------888777555-|-888888------888----------------|
     -|-000-000---000-000-----------|--------------------------------|
        ... ...   ... ...
     -|-----------------------------|--------------------------------|
     -|-----------------------------|--------------------------------|
     -|-----------------------------|--------------------------------|
Gtr 2-|---------7---------777555333-|-------101010---101010888666555-|
     -|-----------------------------|-888888------888----------------|
     -|-000-000---000-000-----------|--------------------------------|
        ... ...   ... ...
Part 2/Gtr 1
-|---------------------------------------------------------------------|-
-|---------------------------------------------------------------------|-
-|---------------------------------------------------------------------|-
-|------------------------------------101010---------------------------|-
-|---------8---------888777888--888888------888-8757535753-2h3p2--0h2--|-
-|-000-000---000-000---------------------------------------------------|-
gtr 2      
-|-----------------------------------------------------------------------|-
-|-----------------------------------------------------------------------|-
-|-----------------------------------------------------------------------|-
-|---------7---------777555777--------101010---108787--787---------------|-
-|------------------------------888888------888------10----10-8h10p8-7h8-|-
-|-000-000---000-000-----------------------------------------------------|-

Chorus
     -|---------------|---------------|---------------|----------------|
     -|---------------|---------------|---------------|----------------|
     -|---------------|---------------|---------------|----------------|
     -|---------------|---------------|---------------|-10-------------|
     -|-000-00-000-00-|-8----7----7h8-|-000-00-000-00-|-------8----7h8-|
     -|-000-00-000-00-|---00---00-----|-000-00-000-00-|----88---88-----|
        ... .. ... ..     ..   ..       ... .. ... ..      ..   ..
Keyboard part(not tabbed)
-|-------|-
-|-------|-
-|-------|-
-|-0~----|-
-|-0~----|-
-|-0~----|-

-|------------------------------------------------------------------|
-|------------------------------------------------------------------|
-|------------------------------------------------------------------|
-|-----7-----5-----7-----5-----5h7-----7-----5-----10-----8-----7h8-|
-|------------------------------------------------------------------|
-|-000---000---000---000---000-----000---000---000----888---888-----|

Chorus
     -|---------------|---------------|---------------|----------------|
     -|---------------|---------------|---------------|----------------|
     -|---------------|---------------|---------------|----------------|
     -|---------------|---------------|---------------|-10-------------|
     -|-000-00-000-00-|-8----7----7h8-|-000-00-000-00-|-------8----7h8-|
     -|-000-00-000-00-|---00---00-----|-000-00-000-00-|----88---88-----|
        ... .. ... ..     ..   ..       ... .. ... ..      ..   ..

Fill 2
     -|---------------|-------------|
     -|---------------|-------------|
     -|---------------|-------------|
     -|-0-------------|-------------|
     -|-0-------------|-------------|
     -|-0-------------|-------1-1-1-|

Stomp Riff
     -|--------------------------------|-------------------------------|
     -|--------------------------------|-------------------------------|
     -|--------------------------------|-------------------------------|
     -|--------------------------------|-------------------------------|
     -|--------------------------------|-------------------------------|
     -|-1-000-0-000-3-000-0-000-1-00-3-|-1-000-0-000-3-00-444333666444-|
          ...   ...   ...   ...   ..       ...   ...   .. ............

Verse
     -|--------------------------|--------------------------|
     -|--------------------------|--------------------------|
     -|--------------------------|--------------------------|
     -|--------------------------|--------------------------|
     -|-6p5---5-----6p5---5----8-|-6p5---5------------------|
     -|-----0---0-0-----0---00---|-----0---0-0-444333666444-|
            .           .   ..         .       ............

Pre-Chorus
Part 1
     -|-----------------------------|--------------------------------|
     -|-----------------------------|--------------------------------|
     -|-----------------------------|--------------------------------|
Gtr 1-|-----------------------------|-------101010---101010888666555-|
     -|---------8---------888777555-|-888888------888----------------|
     -|-000-000---000-000-----------|--------------------------------|
        ... ...   ... ...
     -|-----------------------------|--------------------------------|
     -|-----------------------------|--------------------------------|
     -|-----------------------------|--------------------------------|
Gtr 2-|---------7---------777555333-|-------101010---101010888666555-|
     -|-----------------------------|-888888------888----------------|
     -|-000-000---000-000-----------|--------------------------------|
        ... ...   ... ...
Part 2
     -|-----------------------------|--------------------------------------|
     -|-----------------------------|--------------------------------------|
     -|-----------------------------|--------------------------------------|
Gtr 1-|-----------------------------|-------101010---888101010111111101010-|
     -|---------8---------888777888-|-888888------888----------------------|
     -|-000-000---000-000-----------|--------------------------------------|
        ... ...   ... ...
     -|-----------------------------|--------------------------------------|
     -|-----------------------------|--------------------------------------|
     -|-----------------------------|--------------------------------------|
Gtr 2-|---------7---------777555777-|-------101010---888101010111111101010-|
     -|-----------------------------|-888888------888----------------------|
     -|-000-000---000-000-----------|--------------------------------------|
        ... ...   ... ...

Stomp Riff
     -|--------------------------------|-------------------------------|
     -|--------------------------------|-------------------------------|
     -|--------------------------------|-------------------------------|
     -|--------------------------------|-------------------------------|
     -|--------------------------------|-------------------------------|
     -|-1-000-0-000-3-000-0-000-1-00-3-|-1-000-0-000-3-00-444333666444-|
          ...   ...   ...   ...   ..       ...   ...   .. ............

Chorus
     -|---------------|---------------|---------------|----------------|
     -|---------------|---------------|---------------|----------------|
     -|---------------|---------------|---------------|----------------|
     -|---------------|---------------|---------------|-10-------------|
     -|-000-00-000-00-|-8----7----7h8-|-000-00-000-00-|-------8----7h8-|
     -|-000-00-000-00-|---00---00-----|-000-00-000-00-|----88---88-----|
        ... .. ... ..     ..   ..       ... .. ... ..      ..   ..

Ending
     -|----|
     -|----|
     -|----|
     -|-0--|
     -|-0--|
     -|-0--|
Comments