Heather Nova - Not Only Human Chords & Tabs

 

Not Only Human Chords & Tabs

Heather Nova Chords & Tabs

Version: 1 Type: Tab 0 ratings
1 star 2 stars 3 stars 4 stars 5 stars
comments

Not Only Human Tab

   
    _________________
   /Heather Nova    / This nice spiritual song is played by an acoustic
  /Not Only Human  /  first guitar and a distorted electric second one.
 /Siren           /   There's no reason to tab it all as it's pretty
/________________/    much the same patterns, so here they are.
  ____________
 /1st Guitar:/
/___________/
VERSES:
|-----5-----5-----|-----3-----3-----|-----1-----1-----|-----3-------3/5-|
|---6-----6-------|---3-----3-----3-|---------3---3---|-----------------|
|-----------------|-----------------|---2-----------2-|-----------------|
|-----------------|-5-----5-----5---|-0---------------|---2-------2-----|
|-5-----5-----5---|-----------------|-----------------|-3-------3-------|
|-----------------|-----------------|-----------------|-----------------|
 Morning is almost here - let it wait

|-----5-----5-----|-----3-----3-----|-----1-----1-----|-----3-------3/5-|
|---6-----6-------|---3-----3-----3-|---------3---3---|-----------------|
|-----------------|-----------------|---2-----------2-|-----------------|
|-----------------|-5-----5-----5---|-0---------------|---2-------2-----|
|-5-----5-----5---|-----------------|-----------------|-3-------3-------|
|-----------------|-----------------|-----------------|-----------------|
 I just want to lie here awhile, tempting fate

|-----5-----5-----|-----3-----3-----|-----0h1-0---0-----|-----3-------3/5-|
|---6-----6-------|---3-----3-----3-|-----------------3-|-----------------|
|-----------------|-----------------|---2---------------|-----------------|
|-----------------|-5-----5-----5---|-0---------0-------|---2-------2-----|
|-5-----5-----5---|-----------------|-------------------|-3-------3-------|
|-----------------|-----------------|-------------------|-----------------|
 I don't think I could breath now with you gone
[ Tab from: http://www.guitartabs.cc/tabs/h/heather_nova/not_only_human_tab.html ]
|-----5-----5-----|-----3-----3-----|-----1-----1-----|-----3-------3/5-|
|---6-----6-------|---3-----3-----3-|---------3---3---|-----------------|
|-----------------|-----------------|---2-----------2-|-----------------|
|-----------------|-5-----5-----5---|-0---------------|---2-------2-----|
|-5-----5-----5---|-----------------|-----------------|-3-------3-------|
|-----------------|-----------------|-----------------|-----------------|
 But it's not weakness, it's just something I've begun


CHORUSES:
|-----5-----5-----|-----3-----3-----|-----1-----1-----|-----3-------3/5-|
|---6-----6-------|---3-----3-----3-|---------3---3---|-----------------|
|-----------------|-----------------|---2-----------2-|-----------------|
|-----------------|-5-----5-----5---|-0---------------|---2-------2-----|
|-5-----5-----5---|-----------------|-----------------|-3-------3-------|
|-----------------|-----------------|-----------------|-----------------|

|-----5-----5-----|-----3-----3-----|-----0-1---------|-------3---------|-----------------|
|---6-----6-------|---3-----3-----3-|-------------3---|-----1-----------|-----------------|
|-----------------|-----------------|---2-------2---2-|---0-------------|-----------------|
|-----------------|-5-----5-----5---|-0-------0-------|-----------------|-----------------|
|-5-----5-----5---|-----------------|-----------------|-3---------------|-----------------|
|-----------------|-----------------|-----------------|-----------------|-----------------|

  ____________
 /2nd Guitar:/
/___________/
Plays the bas notes of the chords and then strum the entire chords:

||  Dm  |  G  |  Dm  |  C  ||



LYRICS:
Morning is almost here - let it wait
I just want to lie here awhile, tempting fate
I don't think I could breathe now with you gone
But it's not weakness it's just something I've begun

Maybe there's a light that's always on
Maybe we're not only human
Maybe there's a light that's always on
And we're not only human

When you're sleeping your ceramic
You're surrounded by little stars
Every shimmer is a searchlight
Every planet is ours
Change the street change the decade
Still the longing's left inside
But why am I too small to carry you?
Why does twilight make me cry?

When all the weight is gone
When all is said and done
We're not only human

Life is something set to music
I can hear it when I'm sad
There's a chord in every muscle
Every kiss you ever had
There's a power when you're near me
In our heads or in our bones
I know nothing but I'm guessing
When we die we're not alone



01/31/05
Please email me at Maitinin@gmail.com for comments or corrections!
Comments