Heathens Rage - Knights Of Steel Chords & Tabs

 

Knights Of Steel Chords & Tabs

Heathens Rage Chords & Tabs

Version: 1 Type: Tab 0 ratings
1 star 2 stars 3 stars 4 stars 5 stars
comments

Knights Of Steel Tab

KNIGHTS OF STEEL
As recorded by Heathen's Rage
(From the 1986 EP HEATHEN'S RAGE)


Transcribed by Prokopis "FifthAngel" Laleos

Comments and corrections: iced_matha@hotmail.com  


Im not quite sure about the Main Riff, It could be played better with 2 guitars, someone playing the power chords on the background and the other one the leading riff. I think that in the song the riff includes many slides from one note to another, hear the song and play it as you please :-D

I'll add the final solo ASAP.
 


Intro - Accoustic
   
||---------1-0-------------3---------------------------:----|
||-----3-------3-------3-----3---------------1---------:----|
||---2---2-----------2---2-----2---------0-----0-------:----|
||-0-----------------------------------2---2-----2-----:----|
||---------------0-1-------------0h1h3-------------(3)-:----|
||-----------------------------------------------------:----|


|----------1p0---0-1-|----|
|------3-------3-----|----|
|----2---2-----------|----|
|--0-----------------|----|
|--------------------|----|
|--------------------|----|

Intro Solo w/ Distortion
|-------------------------------------------:
|-------------------------------------------:
|-------------------------------------------:
|-------9-10-12--10h12p10-9-----------------:
|--/12-----------------------10-12-10-10h12-:
|-------------------------------------------:


|---------------------------------------------|
|----------------------/18--17h18p17p15-13-15-|
|-------------9-10-12-------------------------|
|-----9-10-12---------------------------------|
|-/12-----------------------------------------|
|---------------------------------------------|



|------------------------------------------------------------------------------|
|---------------------------------------------13-15-16-15h16p15-13-------------|
|------------------------------------12-14-15----------------------15-14-13----|
|--------------------12--14S15S14-15-------------------------------------------|
|-7-8--7-8-10--/(12)-----------------------------------------------------------|
|------------------------------------------------------------------------------|


                        ~~
|---------------------------|
|---------------------------|
|---------------------------|
|---------------------12----|
|--7-8--7-8-10--/(12)-------|
|---------------------------|


Full Distortion
|-------------------|----|
|-------------------|----|
|--7---5-7---2-5--5-|----|
|--7---5-7---2-5--5-|----|
|--5---3-5---0-3--7-|----|
|-------------------|----|

Main Riff
|-----------------------------------------------------------|
|-----------------------------------------------------------|
|-----------------------------------------------------------|
|----7-------7-------7--4S5-7--3-------3-------6-------2-3--|
|----5-5-5-5---5-5-5-----------1-1-1-1---1-1-1---1-1-1------|
|-----------------------------------------------------------|


|------------------------------------------------------------|----|
|------------------------------------------------------------|----|
|------------------------------------------------------------|----|
|---7-------7-------7--4S5-7--3-------3-------6---3h5p3-2-3--|----|
|---5-5-5-5---5-5-5-----------1-1-1-1---1-1-1---1------------|----|
|------------------------------------------------------------|----|


w/ Vocals
/-------Once-------\/-Repeat-\
|------------------|----------|----|
|------------------|----------|----|
|--7--3--5--10-9-7-|-7--3--5--|----|
|--7--3--5--10-9-7-|-7--3--5--|----|
|--5--1--3---8-7-5-|-5--1--3--|----|
|------------------|----------|----|

[ Tab from: http://www.guitartabs.cc/tabs/h/heathens_rage/knights_of_steel_tab.html ]
|-----------------|----------------|---------------|----------------|-|
|-----------------|----------------|---------------|----------------|-|
|--7--9-10-2-3--5-|-7--9-10-2-3--5-|-7--10-10-3--5-|-7--9-10-2-3--5-|-|
|--7--9-10-2-3--5-|-7--9-10-2-3--5-|-7--10-10-3--5-|-7--9-10-2-3--5-|-|
|--5--7--8-0-1--3-|-5--7--8-0-1--3-|-5---8--8-1--3-|-5--7--8-0-1--3-|-|
|-----------------|----------------|---------------|----------------|-|

Repeat 4x
|----------------------------------------------------------------|----|
|----------------------------------------------------------------|----|
|----------------------------------------------------------------|----|
|--7--------------10---9---12-----10--------------12---9---10----|----|
|--5--5-5-5-5-5----8---7---10------8--8-8-8-8-8---10---7----8----|----|
|----------------------------------------------------------------|----|


|-----------------------------------|----|
|-----------------------------------|----|
|--7--------7---------7----------7--|----|
|--7--------7---------7----------7--|----|
|--5--------5---------5----------5--|----|
|-----------------------------------|----|

Repeat 3x
|--------------------------------------------------------------------|----|
|--------------------------------------------------------------------|----|
|--------------------------------------------------------------------|----|
|--7--------------10---9---12-----10--------------12---9---10--------|----|
|--5--5-5-5-5-5----8---7---10------8--8-8-8-8-8---10---7----8--------|----|
|--------------------------------------------------------------------|----|

Repeat 3x
|-------------------------------------------------------------------|----|
|-------------------------------------------------------------------|----|
|-------------------------------------------------------------------|----|
|-------------------------------------------7-5---------------------|----|
|--5--5-5-5---7-8---5--5-5-5---7-8--------------8--------8-7----5---|----|
|-----------------------------------6--6-6--------8--8-8------8-----|----|


|----------------------------------------------------------------------|----|
|----------------------------------------------------------------------|----|
|--7--------------7--------------------------------------------------7-|----|
|--7--------------7--------------10-------------------8--------------7-|----|
|--5--5-5-5--7-8--5--5-5-5--7-8--10-------10--8-------8-------8-7----5-|----|
|---------------------------------8--8-8---------12---6--6-6------8----|----|

Repeat w/ Solo
|-------------------------------------------------------|----|
|-----------------------------------------------6----5--|----|
|---------------------------------------------5-5--5-4--|----|
|--7-------7-------7-------7-------7-------7--5-3--5-2--|----|
|--5-5-5-5---5-5-5---5-5-5---5-5-5---5-5-5----3----3----|----|
|-------------------------------------------------------|----|




--------------------------------------------------------------------------------


Tablature Legend
----------------
 h   - hammer-on
 p   - pull-off
 b   - bend
 pb  - pre-bend
 r   - bend release (if no number after the r, then release immediately)
 /\  - slide into or out of (from/to "nowhere")
 s   - legato slide
 S   - shift slide
 - natural harmonic
[n]  - artificial harmonic
n(n) - tapped harmonic
 ~   - vibrato
 tr  - trill
 T   - tap
 TP  - trem. picking
 PM  - palm muting
\n/  - tremolo bar dip; n = amount to dip
 \n  - tremolo bar down
 n/  - tremolo bar up
/n\  - tremolo bar inverted dip
 =   - hold bend; also acts as connecting device for hammers/pulls
 <> - volume swell (louder/softer)
 x   - on rhythm slash represents muted slash
 o   - on rhythm slash represents single note slash
Comments