Heartbreakers - Free Fallin Chords & Tabs

 

Free Fallin Chords & Tabs

Heartbreakers Chords & Tabs

Version: 2 Type: Tab 0 ratings
1 star 2 stars 3 stars 4 stars 5 stars
comments

Free Fallin Tab

name = Brian Burgess
email = bird_dawg11@yahoo.com
song = Free Fallin'
group = Tom Petty
Tom Petty and the Heartbreakers

Riff 1

E--5---6------6---5-------1--------------------------|
B--6---6------6---6-------1--------------------------|
G--5---5------5---5-------0--------------------------|
D----------------------------------------------------|
A----------------------------------------------------|
E----------------------------------------------------|

Riff 2(play before background vocals "Free fallin' well I'm free fallin'")
[ Tab from: http://www.guitartabs.cc/tabs/h/heartbreakers/free_fallin_tab_ver_2.html ]
E-------------------------------|
B-------------------------------|
G-------------------------------|
D-------------------------------|
A-------------------------------|
E--5--5--3----1--3--1~----------|

Riff 3

E---------------------------------------------|
B---------------------------------------------|
G---------------------------------------------|
D---------------------------------------------|
A---------------------------------------------|
E--1-1-1/6-6-6-6-6-6-6\1-1-1/8-8-8-8-8-8------|

Enjoy!

Questions, comments, corrections send to bird_dawg11@yahoo.com

"...she kissed my third cousin twice..."  Tom Petty
Comments