Heart Evangelista - One Chords & Tabs

 

One Chords & Tabs

Heart Evangelista Chords & Tabs

Version: 2 Type: Chords 0 ratings
1 star 2 stars 3 stars 4 stars 5 stars
comments

One Chords

   
heartevangelista.2ya.com

Philippines

Song Title: One
By: Heart Evangelista
Album: Himig Handog
Tuning: Standard
Transcribed By: Choo Nerez
(If you have any comments or suggestions to the transcription,pls feel free to mail me at
this address, joshnerez@yahoo.com)

*Oh boy! A song from my one and only crush...oh heart, ang ganda mo talaga as in...grabeh,
the melody to this song is spectacular, i love the way the rhythmic progression sa song..way to
go, plus ganda din boses ng crush ko...heart ang ganda mo talaga...well enough sa praise,
lets get down to the song..i dont know if one guitar has capo in it, i can hear some high
notes kasi eh..but well, as usual, alang capo na naman ung transcription ko..it has 3 guitars,
ung 2, puro overdubbed kaya very melodic ung song...the solo has 2 instruments working in
it, the guitars and keyboards..Ung ibang mga fill in ng song ay di ko na sinali, kayo na
bahala mag fill in nun, pra di maxadong plagarism ang labas..the chord progression
strumming is really groovy, so sanayan nyo lang tenga nyo sa pakikinig sa cd..itll become
second nature..just listen to it..happy pickin'..

Notation Legend:

*	= 	Pinch Harmonics
p	=	Pull-off
h	=	Hammer-on
b	=	Bend
r	=	Release
[]	=	Natural Harmonics
P.M.	=	Palm Mute
t	=	Tap
x	=	Dead String
tr	=	Tremelo Picking
tr~	=	Trill
~	=	Vibrato
s	=	Slide

Chord Progression:

	F#	C#	BM7add5(no3rd)	Ebm	BM7add5

e|-------x-------4------(2)--------------6-------2------|
B|------11-------6-------x---------------7-------4------|
G|------11-------6-------3---------------8-------3------|
D|------11-------6-------4---------------8-------4------|
A|-------9-------4-------2---------------6-------2------|
E|-------x-------x-------2-----------------------2------|

	C#ii	b

e|--------------2--------------------------------------------||
B|--------------4--------------------------------------------||
G|-------10-----4--------------------------------------------||
D|-------11--------------------------------------------------||
A|-------11--------------------------------------------------||
E|--------9--------------------------------------------------||


Intro:

 Guitar 1: Fig. 1
					  (2x)
e|--6h7--6--6h7--7--7-----6h7--7--4--4--4---||
B|--7----7--7----7--7-----7----7--6--6--6---||
G|--6----6--6----6--6-----6----6--6--6--6---||
D|------------------------------------------||
A|------------------------------------------||
E|------------------------------------------||

Guitar 2: Fig.2
(Guitar 1 still plays fig.1)
e|-------|-----|--2--|--2--|
B|---11--|-----|--4--|--4--|
G|---11--|--10-|--3--|--4--|
D|---11--|--11-|--4--|-----|
A|----9--|--11-|--2--|-----|
E|-------|---9-|--2--|-----|

Verse:  Do Fig.1 (4x)

	One Night, One Kiss 
	Only One Feeling Exist 
	One Breath, One Touch 
	But I've Never Felt This Much 
[ Tab from: http://www.guitartabs.cc/tabs/h/heart_evangelista/one_crd_ver_2.html ]
Chorus: BM7add5(no 3rd) - C# - Ebm - C# - BM7add5(no 3rd) - C#

	And I, I Wanna Share My Whole Life With You 
	I Wanna Keep On Dreaming Dreams And With You 
	Make Them All Come True 

	Ebm - C# - BM7add5(no 3rd) - C# (2x)

	As I Lay Inside Your Arms And
	Rest My Head Upon Your Shoulder 
	Believe Me There's Nothing That 
	I Can't Do Whenever We're Together 
	
Interlude: Do Fig. 1 (one time only)

Verse: Do Fig. 1

(Repeat Chorus)

Solo: BM7add5(no 3rd) - Ebm (yung melody ng keyboards,di ko na lang tinanscribe)

e|--------6s7-7p6------------------------------|
B|------7---------7p6--------------------------|
G|--6s8---------------8p6-----------------6s8--|
D|------------------------9p8-8p6--------------|
A|--------------------------------9p8-8p6------|
E|---------------------------------------------|

(some keyboard melodies then this)
e|---9s11----||
B|-----------||
G|-----------||
D|-----------||
A|-----------||
E|-----------||

Bridge: Ebm - C# - Ebm
	BM7add5(no 3rd) - C# - Ebm - C#

(Repeat Chorus)

Chorus 2: BM7add5(no 3rd) - C# - Ebm - C# - BM7add5(no 3rd) - C#
	  Ebm - C# - BM7add5(no 3rd) - C# (2x)

Last Filled-in Chorus: (Plays Fig.3)

The Lyrics:

One
By Heart Evangelista

Hoo...

Verse:
One Night, One Kiss 
Only One Feeling Exist 
One Breath, One Touch 
But I've Never Felt This Much 

Chorus:
And I, I Wanna Share My Whole Life With You 
I Wanna Keep On Dreaming Dreams And With You 
Make Them All Come True 
As I Lay Inside Your Arms And 
Rest My Head Upon Your Shoulder 
Believe Me There's Nothing That 
I Can't Do Whenever We're Together 

Verse:
One Time, One Place 
With The Warmest Sweet Embrace 
One Joy, One Pain 
Only True Love Can Sustain 

Chorus:
And I, I Wanna Share My Whole Life With You 
I Wanna Keep On Dreaming Dreams And With You 
Make Them All Come True 
As I Lay Inside Your Arms And 
Rest My Head Upon Your Shoulder 
Believe Me There's Nothing That 
I Can't Do Whenever We're Together 

Bridge:
I Can Never Be The Same Girl That I Used To Be 
I'm Stronger Now 'Cause 
You've Made Me Face The Fear In Me 
And You Don't Have To Prove Yourself At All 
And Making Wrong Things Right 
The Fact That You Love Me 
Makes Everything All Right 

Chorus:
And I, I Wanna Share My Whole Life With You 
I Wanna Keep On Dreaming Dreams And With You 
Make Them All Come True 
As I Lay Inside Your Arms And 
Rest My Head Upon Your Shoulder 
Believe Me There's Nothing That 
I Can't Do Whenever We're Together 

Chorus2:
And I, I Wanna Share, Share My Whole Life With You 
I Wanna Keep On Dreaming, Dreams Do Come True 
As I Lay Inside Your Arms And 
Rest My Head Upon Your Shoulder 
Believe Me There's Nothing That 
I Can't Do Whenever We're Together 

Last Filled-in Chorus:
Honey Keep On Dreaming 
Nothing That I Can't Do 
Nothing That I Can't Do 
Only When I'm With You
Comments