Heart - Vainglorious Chords & Tabs

 

Vainglorious Chords & Tabs

Heart Chords & Tabs

Version: 1 Type: Tab 0 ratings
1 star 2 stars 3 stars 4 stars 5 stars
comments

Vainglorious Tab

   
-----------------------------------------------------------------------------
			     VAINGLORIOUS - Heart
-----------------------------------------------------------------------------

Tabbed by: Anne Drury
Email: zerofret_ad@hotmail.com
Date: August 12, 2005

Written by: N. Wilson/A. Wilson/C. Bartock
Album: "Jupiter's Darling"     (2004, Sovereign Artists)


Notes:

^...bend (q=quarter step, w=whole step)
r...release bend
p...pulloff
/...slide up
=...hold note
NC..no chord

Tuning: Standard

Intro:

Figure 1 - play 2x
Gtr 1
 E ----------|--------------|-----------|---------------|
 B ----------|--------------|-----------|---------------|
 G ----------|--------------|-----------|---------------|
 D ----------|--------------|-----------|---------------|
 A ----------|-----------2--|-----------|------1--------|
 E --0-------|------3-------|---0-------|-----------3---|
             |              |           |               |
             |              |           |               |
Gtr 2        |              |           |               |
 E ----------|--------------|-----------|---------------|
 B -------8--|--8-----------|--------8--|--8---6----3---|
 G -------7--|--7-----------|--------7--|--7---7----4---|
 D ----------|--------------|-----------|---------------|
 A ----------|--------------|-----------|---------------|
 E ----------|--------------|-----------|---------------|


1st Verse:

N.C.
Rock it up, baby, get ready to fight
 E --------------------------------|
 B --------------------------------|
 G --------------------------------|
 D --------------------------------|
 A --------------------------------|
 E --3=^wr(3)^wr(3)^wr(3)--etc-----|

Then:

Figure 2 -

E ---------------------|--------------------|
B ---------------------|--------------------|
G ---------------------|--------------------|
D ---------------------|--------------------|
A --------------3^q----|-----5--------------|
E --3---5--3-5------5--|--3----3-2---5-2----|

N.C.
Get ready to light up the whole damn night      (Play Figure 2)

N.C.
Jupiter's darling standing in the ring
 E --------------------------------|
 B --------------------------------|
 G --------------------------------|
 D --------------------------------|
 A --------------------------------|
 E --3=^wr(3)^wr(3)^wr(3)--etc-----|       (Play Figure 2)

N.C.
You got yourself set on being king of kings
Then:

E ---------------------|---------------------|
B ---------------------|---------------------|
G ---------------------|---------------------|
D ---------------------|---------------------|
A --------------3^q----|-----5-------------3-|
E --3---5--3-5------5--|--3----3-2---5-2-0---|

 C
Slowly like a drop of tupelo honey
 D
Rolling on down some little girl's money


CHORUS:

 A   C   D
Here he comes -- Vainglorious
 A     C            D
First serve, first come -- Vainglorious
 A      C          D               F        D
Dig me now, dig me now, avoid the rush

Vainglorious


(Play 2x)
E ---------------------|--------------------|
B ---------------------|--------------------|
G ---------------------|--------------------|
D ---------------------|--------------------|
A --------------3^q----|-----5--------------|
E --3---5--3-5------5--|--3----3-2---5-2----|

2nd Verse:     (played same as 1st Verse)

[ Tab from: http://www.guitartabs.cc/tabs/h/heart/vainglorious_tab.html ]
Offer up all that devil delight
Keep the camera on the money in the big spotlight
All the other kids think you're so extreme
You don't want sugar, but you'll take the cream

 C                               Csus4  C
Bundle up, baby, said the fortune teller
        D        Dsus4 D
'Cause vanity man gonna bring some big weather

Play CHORUS
Then:


E ----------------------|------------------|
B ----------------------|------------------|
G ----------------------|------------------|
D ----------------------|------------------|  (then play Fig. 2)
A ------5-------3^q-----|-----5------------|
E --3------3-5------5-5-|--3----3-2---5-2--|


Play FIGURE 1 2x


Guitar solo:


 E ----------|---------------|--7-----5---8-7-5--|----------------|
 B --/7------|----7----7--7--|--7---8-5-8-8-7-5--|----------------|
 G --/5------|----5----5--5--|-------------------|--5-7-5---------|
 D ----------|---------------|-------------------|--5-7-5-5-5-5---|
 A ----------|---------------|-------------------|----------5-5---|
 E ----------|---------------|-------------------|----------------|

(Had difficulty distinguishing what the guitar was playing for
most of the staff below)

 E --------|--------------|------------------------|--------------|
 B --/7----|----7^sr------|----7^sr----------------|--------7^sr--|
 G --/5----|----7^wr----5-|----7^wr--7p5-----------|-5------7^wr--|
 D --------|----------7---|-7------------7-5---5-7-|---7-7--------|
 A --------|--------------|------------------7-----|--------------|
 E --------|--------------|------------------------|--------------|


(7th fret)
G  Gsus4 G
 E ---------|--------------|--------------------------|-----------|
 B ---------|--3--3--5--6--|--------------------------|-----------|
 G ---------|--2--2--4--5--|--2p0---------------------|--?--?--?--|
 D ---------|--------------|-------2p0----------------|-----------|
 A ---------|--------------|------------3p0-----------|-----------|
 E ---------|--------------|-----------------3==^wr(3)|==---------|

CHORUS:


 A   C   D
Here he comes -- Vainglorious
 A     C            D
First serve, first come -- Vainglorious
 A      C          D               F        D
Dig me now, dig me now, avoid the rush


 A   C   D
Here he comes -- Vainglorious
 A     C            D
First serve, first come -- Vainglorious
 A      C          D               F        D
Dig me now, dig me now, avoid the rush

Vainglorious

Play Figure 2 3x

2nd time through Fig. 2, Guitar 2 plays this fill:


 E ----------------------|
 B ----7^sr-----7^sr-----|
 G ----7^wr-----7^wr-----|
 D ----------------------|
 A ----------------------|
 E ----------------------|


 E ----------------------------|
 B ----------------------------|
 G ----------------------------|
 D ----------------------------|
 A ----------------------------|
 E --3-2-0-5-----3-2---0--3----|
                               |
                               |
                               |
 E -----------------------7----|
 B --------------7^sr-----8----|
 G --------------7^wr--5--7----|
 D -----------------------5----|
 A ----------------------------|
 E ----------------------------|


----------------------------------------------------------------

(This file is the transcriber's own work and represents
their interpretation of the song.)
Comments