Heart - Magic Chords & Tabs

 

Magic Chords & Tabs

Heart Chords & Tabs

Version: 1 Type: Tab 0 ratings
1 star 2 stars 3 stars 4 stars 5 stars
comments

Magic Tab

   
DISCLAIMER: I DID NOT WRITE THIS TAB. Chris Grimsley (Pyroguy131@yahoo.com)is the author

the chords used are: G5 F5 C5 A#5
I think an acoustic guitar plays these chords: G F C A

^     Bend
(22)  Bend to fret
RB    Release Bend
H     Hammer on
P     Pull off
TR    Trill
~     Vibrato
/     slide

Heart - Magic Man

Intro solo (0:00)
e-----------------------------------------------------------------------|
B-----------------------------------------------------------------------|
G-19^(22)-19-21^(24)-22-19-17-15-14-15-17-15h17/19-17h19/22-22^(24)~~---|
D-----------------------------------------------------------------------|
A-----------------------------------------------------------------------|
E-----------------------------------------------------------------------|


Fill (0:53)
e-----------------------------------------------------------------------|
B-----------------------------------------------------------------------|
G-15^(17)rb-p12---------------------------------------------------------|
D---------------15^(17)-------------------------------------------------|
A-----------------------------------------------------------------------|
E-----------------------------------------------------------------------|


Second solo (1:41)
e-----------------------------------------------------------------------|
B-----------------------------------------------------------------------|
G-3tr5----17^(19)-17^(19)rb-17p15-19^(22)-22p19-22^(24)rb---------------|
D-----------------------------------------------------------------------|
A-----------------------------------------------------------------------|
E-----------------------------------------------------------------------|


e-----------------------------------------------------------------------|
B-----------------------------------------------------------------------|
G-17^(19)rb-p15-17^(19)-24^---------------------------------------------|
D-----------------------------------------------------------------------|
A-----------------------------------------------------------------------|
E-----------------------------------------------------------------------|


Third solo (2:39)

e-18^(20)rb-p15---------------------------------------------------------|
B---------------18^(20)rb-P15-------------------------------------------|
G-----------------------------17^(19)rb-P15-----------------------------|
D-----------------------------------------------------17----------------|
A--------------------------------------------13~------17----------------|
E------------------------------------------------15~--15----------------|
Repeat 1x
[ Tab from: http://www.guitartabs.cc/tabs/h/heart/magic_tab.html ]
e-----------------------------------------------------------------------|
B-19^(21)^^^^-----------------------------------------------------------|
G-------------17^(19)/19-17/15------------------------------------------|
D-----------------------------------------------------------------------|
A-----------------------------------------------------------------------|
E--------------------------------15/0-----------------------------------|


e-----------------------------------------------------------------------|
B-----------------------------------------------------------------------|
G-----------------------------------------------------------------------|
D-----------------------------------------------------------------------|
A-15^(17)-12h13p12-----12h13p12-----12h13p12------12h13p12--------------|
E------------------13-----------13------------13-----------13/15~-------|


e-----------------------------------------------------------------------|
B-----------------------------------------------------------------------|
G-----------------------------------------------------------------------|
D-----------------------------------------------------------------------|
A-12-13-12-13p12--------------------------------------------------------|
E----------------13-13/15~----------------------------------------------|


Fourth solo (slow solo) (3:09)
e-------------------------------------------------------------------------|
B--------------------------------11---------------------------------------|
G-9^(10)-9-9^(10)rb-p7----7-9-10----9^(10)rb-p7---7-----------------------|
D----------------------8------------------------8-------------------------|
A-------------------------------------------------------------------------|
E-------------------------------------------------------------------------|
Repeat 1x


e-----------------------------------------------------------------------|
B-----------------------------------------------------------------------|
G-----------------------------------------------------------------------|
D-----------------------------------------------------------------------|
A-17/15--15/13--13/12--8/10---------------------------------------------|
E-----------------------------------------------------------------------|

(3:52)

e------------------------------------------------------------------------|
B-21^(23)/0------------------------------------13------------------------|
G------------------------15-12-15----15-12-15--12--15--------------------|
D------------3-4-5-5-----15-12-15----15-12-15------15--------------------|
A------------3-4-5-5-----------------------------------------------------|
E------------1-2-3-3-----------------------------------------------------|
                        {--------- Palm Mute ----------------------------|


e-----------------------------------------------------------------------|
B-----------------------------------------------------------------------|
G-15p12----12-----------------------------------------------------------|
D-------15------15p12----12---------------------------------------------|
A---------------------15----15p14----14---------------------------------|
E---------------------------------15----14------------------------------|
Comments