Heart - Love Alive Chords & Tabs

 

Love Alive Chords & Tabs

Heart Chords & Tabs

Version: 3 Type: Tab 0 ratings
1 star 2 stars 3 stars 4 stars 5 stars
comments

Love Alive Tab

   
LOVE ALIVE
h = hammer on
p = pull off

------------------------------------------------------|
------------------------------------------------------|
------------------------------------------------------|  Repeat as
--4-5-7--7--5h7p5-4-5--5--4h5p4-2-4--4--2h4p2-0-2--2--|  needed
------------------------------------------------------|
------------------------------------------------------|

Ann sings "...I gotta keep my love...", then Nancy plays harmonics on the 12 fret on the D, B then G strings
then it goes?
                                             slide
E---------------------------------------------------------------------------------|
B-----------7-----------------8--------10---10---10-------------------------------|
G---------------7----------7-----------9----9-----9----------12---11--9-----------|      then repeat
D----7------------------9-------------11---11---11------------------------12--11--|
A---------------------------------------------------------------------------------|
E---------------------------------------------------------------------------------|

[ Tab from: http://www.guitartabs.cc/tabs/h/heart/love_alive_tab_ver_3.html ]
(This is the approximate rhythm; listen to the recording to
  get it right!)

The next part is a strumming part with Nancy?s famed open chords (when the drums come in)

E-----0----------0-------0-------0---------------|
B-----8--------10-------5-------7----------------|
G-----9--------11-------7-------9----------------|         repeat a few times
D----10-------12-------7-------9-----------------|
A----x--------x---------x-------x----------------|
E----x--------x---------x-------x----------------|

Then comes the ?oooohhhhhh? part play these chords:

E:  x22400
then   x54000
then  Asus:  x02200
then  x05650
then   x07700
then back to E then?

E--------------------------------------0------------|
B--------------------------------------0------------|
G-------------------0------------0----1-------------|
D----------------0------------0-------2-------------|
A-------------0------------0----------2-------------|
E---0--2--3------------2-------------0--------------|

When Ann starts in on ?you?re up there under the spotlight??
Play the ?ooohhhhh? chords.

All of this is on Nancy?s guitar video, which I HIGHLY recommend!
Comments