Heart - Love Alive Chords & Tabs

 

Love Alive Chords & Tabs

Heart Chords & Tabs

Version: 1 Type: Bass Tab 0 ratings
1 star 2 stars 3 stars 4 stars 5 stars
comments

Love Alive Bass Tab

This song is called "Love Alive" by Heart. It's on the album Little Queen. 

The beginning or intro of the song has no bass.

During the first verse you could play this if you want to but generally there's no bass yet.
-----------------------------------
-----------------------------------
-----------------------------------
-5-5-5-5-5-5-5--------------------- etc.

Chorus:
-9-7--------------------9-7------------------------------
-----10-9-7-5-4-5-7-7-7-----10-9-7-5-4-5-7-7-7-----------
---------------------------------------------------------
---------------------------------------------------------

Verse 2:
----------------------------------------------------------------------------
-7-7---7-7---7-7---7-7---7-7---7-7---7-7---7-7---7-7---7-7---7-7---7-7------
----------------------------------------------------------------------------
-----5-----5-----5-----5-----5-----5-----5-----5-----5-----5----5------5----

Chorus 2:
-9-7--------------------9-7------------------9-7----------------------------
-----10-9-7-5-4-5-7-7-7-----10-9-7-5-4-7---7-----10-9-7-5-4-7---7-----------
----------------------------------------------------------------------------
-----------------------------------------5--------------------5-------------
[ Tab from: http://www.guitartabs.cc/tabs/h/heart/love_alive_btab.html ]
-9-7----------------------------------------------------------
-----10-9-7-5-4-5---------------------------------------------
--------------------------------------------------------------
------------------5-------------------------------------------

Interlude: (3xs)
--------------------------------------------------------------
---------5-9-7----------5-7-7-7-------------------------------
-----5-7-------10-9-5-7---------------------------------------
-5-7----------------------------------------------------------

Bridge: (3xs)
-------------7h9----------------------------------------------
-----7h9---------------5--------------------------------------
-7-7-----7-7-----7-7-7---7-7-9-10-9-7-------------------------
--------------------------------------------------------------

Verse 3:
-------9----------------------9-------------------------------
---9-------5--------------9-------5---------------------------
-7---7---7---7-7-9-10-9-7---7---7---7-------------------------
--------------------------------------------------------------

Chorus 3:
-------------------------------------------------------------------------------
-9-7----------------9-7----------------9-7----------------9-7------------------
-----10-9-7-5---5-7-----10-9-7-5---5-7-----10-9-7-5---5-7-----10-9-7-5---5-7---
--------------5------------------5------------------5------------------5-------

Outro:
----------------------------------------------------
----------------------------------------------------
-7-9-10-9-7---------------7-------------------
--------------0-1-3-2-5----------------------------- 

Tabbed by: Lauren (Citysburning2)
Comments