Heart - Im Fine Chords & Tabs

 

Im Fine Chords & Tabs

Heart Chords & Tabs

Version: 1 Type: Tab 0 ratings
1 star 2 stars 3 stars 4 stars 5 stars
comments

Im Fine Tab

   
-----------------------------------------------------------------------------
			     I'M FINE - Heart
-----------------------------------------------------------------------------

Tabbed by: Anne Drury
Email: zerofret_ad@hotmail.com
Date: August 22, 2005

Written by: N. Wilson, C. Bartock
Album: "Jupiter's Darling"     (2004, Sovereign Artists)

Notes:

^...bend (q=quarter step, w=whole step)
hb..hold bend
r...release bend
/...slide up
~...vibrato
x...dead note

Tuning: Standard
The chord below is played throughout Verses 1 & 2. (I don't know 
exactly what it is by name.):

EADGBE
xx122x


1ST VERSE:

Anyway, as I was saying before we all got blown away - oh man
Figure 1
(w/ chord shown above)
 E --------------|--------------|--------------|--------------|
 B --------------|--------------|--------------|--------------|
 G --------------|--------------|--------------|--------------|
 D --------------|--------------|--------------|--------------|
 A -6----------4-|-6----------4-|-6----------4-|-6----------4-|
 E ---4--5--6----|---4--5--6----|---4--5--6----|---4--5--6----|


(continue Figure 1 for next 5 lines of lyrics)

Flash flood in a paper cup, no chance to study up - oh man
What's the chad confetti stuff shooting out the TV
Is it Y2K or is it World War III?
The dogs of reason ran away, way into the fray
And whoa, the hell we have to pay

                         Have you heard?
   Ab(5)           B(5)           Ab(5)           B(5)
 E --------------|--------------|--------------|--------------|
 B --------------|--------------|--------------|--------------|
 G --------------|--------------|--------------|--------------|
 D -6-6--6--6--6-|-9-9--9--9--9-|-6-6--6--6--6-|-9-9-9-9------|
 A -6-6--6--6--6-|-9-9--9--9--9-|-6-6--6--6--6-|-9-9-9-9------|
 E -4-4--4--4--4-|-7-7--7--7--7-|-4-4--4--4--4-|-7-7-7-7------|




CHORUS:

  As I was       saying,  I'm fine
  Ebm           Db           (Ab)
 E ---6----6---|---4----4---|----------------------|----------------------|
 B -----7--7---|-----6--6---|----------------------|----------------------|
 G -8------8---|-6------6---|----------------------|----------------------|
 D ------------|------------|----------------------|----------------------|
 A ------------|------------|-2^q---2^q------------|-2^q---2^q------------|
 E ------------|------------|-----4-----4--x-x-(2)-|-----4-----4--x-x-(2)-|



  Things don't make sense to me 
                     all the time
  Ebm           Db          (Ab)
 E ---6----6---|-4----4----|-------------------|------------------|
 B -----7--7---|-6----6----|-------------------|------------------|
 G -8------8---|-6----6----|-------------------|------------------|
 D ------------|-----------|-------------------|------------------|
 A ------------|-----------|-2^q---2^q---------|---------0-1-2-3--|
 E ------------|-----------|-----4-----4--4--1-|-1-2-3-4----------|


  I'm hanging   right on that line, oh
  Ebm           Db           (Ab)
 E ---6----6---|-4-4----4---|------------------|------------------|
 B -----7--7---|-6---6--6---|------------------|------------------|
 G -8------8---|-6------6---|------------------|------------------|
 D ------------|------------|------------------|------------------|
 A ------------|------------|-2^q---2^q--------|-2^q---2^q--------|
 E ------------|------------|-----4-----4--x-x-|-----4-----4--x-x-|


  As I was      saying, oh, I'm fine
  Ebm           Db           (Ab)
 E -6-6----6---|-4------4---|-------------------|-----------------|
 B -7---7--7---|-6------6---|-------------------|-----------------|
 G --------8---|-6------6---|-------------------|-----------------|
 D ------------|------------|-------------------|-----------------|
 A ------------|------------|-2^q---2^q---------|---------0-1-2-3-|
 E ------------|------------|-----4-----4--4--1-|-1-2-3-4---------|


[ Tab from: http://www.guitartabs.cc/tabs/h/heart/im_fine_tab.html ]
 E -------------------|
 B -------------------|
 G -------------------|
 D -------------------|
 A ----------0-1-2-3--|
 E --1-2-3-4----------|



BRIDGE:

Eb         B           Db            Eb
Midsummer lifeline in stone crimson love

Eb        B            Db             Eb
Slo-mo explosion come down from above

Eb             B          Db        Eb          
Tune out the noise of the tumbling world

Eb          B            Db        Ab
If you can hear me, it's all in a word
          
           B
Have you heard?



Guitar solo:   (play Figure 1 with guitar solo)

 
 E -------------|----------------|-----------------|--------14----|
 B -------------|----------------|-----------------|-14^w---------|
 G -[13^w~--hb--|----------13]r--|-13^w-13^w~------|--------------|
 D -------------|----------------|-----------------|--------------|
 A -------------|----------------|-----------------|--------------|
 E -------------|----------------|-----------------|--------------|


So absurd                                             
                                                   
 E -14^w--14--------------|----------------|------------|---------|
 B -----------16-14-------|-16~------------|------------|---------|
 G -----------------13-15-|--------/15-----|-/13--------|---------|
 D -----------------------|------------16--|-----16-----|---------|
 A -----------------------|----------------|------------|---------|
 E -----------------------|----------------|------------|---------|


(Note on guitar solo: This a fairly loose rendering of the solo. There
are two lead guitar lines playing simultaneously, and it's difficult 
to distinguish what each one is playing since they cross over each 
other. I've attempted to pick out and transcribe one guitar line,
but it's not exact. The last measure isn't transcribed.)  



CHORUS:

  As I was       saying,  I'm fine
  Ebm           Db           (Ab)
 E ---6----6---|---4----4---|----------------------|----------------------|
 B -----7--7---|-----6--6---|----------------------|----------------------|
 G -8------8---|-6------6---|----------------------|----------------------|
 D ------------|------------|----------------------|----------------------|
 A ------------|------------|-2^q---2^q------------|-2^q---2^q------------|
 E ------------|------------|-----4-----4--x-x-(2)-|-----4-----4--x-x-(2)-|



  Things don't make sense all 
                        the time
  Ebm           Db          (Ab)
 E ---6----6---|-4----4----|-------------------|------------------|
 B -----7--7---|-6----6----|-------------------|------------------|
 G -8------8---|-6----6----|-------------------|------------------|
 D ------------|-----------|-------------------|------------------|
 A ------------|-----------|-2^q---2^q---------|---------0-1-2-3--|
 E ------------|-----------|-----4-----4--4--1-|-1-2-3-4----------|



2ND VERSE:

Anyway, as I was saying, 'scuse me for just a moment, please - oh man
(w/ chord shown at start)
 E --------------|--------------|--------------|--------------|
 B --------------|--------------|--------------|--------------|
 G --------------|--------------|--------------|--------------|
 D --------------|--------------|--------------|--------------|
 A -6----------4-|-6----------4-|-6----------4-|-6----------4-|
 E ---4--5--6----|---4--5--6----|---4--5--6----|---4--5--6----|



I'm OK I'm OK,    Right after I      breakdown,
I'll come around,  have this little  breakdown, breakdown

 E --------------|--------------|--------------|--------------|
 B --------------|--------------|--------------|--------------|
 G --------------|--------------|--------------|--------------|
 D --------------|--------------|--------------|--------------|
 A -6----------4-|-6----------4-|-6----------4-|-6------------|
 E ---4--5--6----|---4--5--6----|---4--5--6----|---4--5-------|


---------------------------------------------------------------------------

(This file is the transcriber's own work and represents 
their interpretation of the song.)
Comments