Heart - Heartless Chords & Tabs

 

Heartless Chords & Tabs

Heart Chords & Tabs

Version: 1 Type: Bass Tab

Heartless Bass Tab

(0.44) Part 1
G------------------------------------------------------------------]
D----5-------------------------------------------------------------]
A---------------5--------------------------5-----------------------]
E--------5s7--------7s5----3----5s7---------7s5----3---------------]

(0.51)
G--------------------------------------------------------------------------------]
D-------------------------------------------------------------------5------------]
A----7--------------------------5-----------3--3--3--2--1--0-------4--5----------]
E--------0--1--2--3----5s7--------7s5--------------------------------------2--1--]
[ Tab from: http://www.guitartabs.cc/tabs/h/heart/heartless_btab.html ]
(0.58)
G---------------------------------------------------------------------]
D---------------------------------------------------------------------]
A------------------------------5-----------3--3--3--2--1--0--0--0--0--]
E----0----0--1--2--3----5s7--------7s5--------------------------------]

(1.06)
G----------------------------------------------------------------------------]
D--------------------------------------------------7----7----5---------------]
A------------------------------5-----------3------------------------7--------]
E----0----0--1--2--3----5s7--------7s5---------------------------------------]

Part 1 repeats at 1.44

(2.26) to (3.38) Part 2
G------------------------------------------------]
D------------------------------------7--5--4-----]
A---------7--5--4--then----0--0------------------]
E𢠢--------------------------------------------]

Part 1 repeats at (3.40)
Part 2 repeats at (4.18)