Heart - Alone Chords & Tabs

 

Heart Chords & Tabs

Version: 1 Type: Tab 0 ratings
1 star 2 stars 3 stars 4 stars 5 stars
comments

Alone Tab

Song: ALONE
Band: Heart

Here's my take on the solo of this great rock ballad from the 80's. Listen to song to get the
timing correct. Enjoy! Any corrections/additions etc welcome on fenechj@maltanet.net


----
SOLO
----

---------------------13-14--------------------------------------------------|
---14b 14b 14-11-14b--------14-12------------------------11-11hb------------|
----------------------------------15-13--11-10-8----8-10--------------------|
----------------------------------------------------------------------------|
----------------------------------------------------------------------------|
----------------------------------------------------------------------------|
[ Tab from: http://www.guitartabs.cc/tabs/h/heart/alone_tab.html ]
-----------------11-11-9-----------------------------------------------------|
--14-16-14-12-11---------12--------14-12-11h12h14p12--9-------11-14-11-------|
-----------------------------8-11--------------------------------------11----|
-----------------------------------------------------------9-----------------|
-----------------------------------------------------------------------------|
-----------------------------------------------------------------------------|

------------------------------------13h14h16--14b-14b-14b-13b-19b-19b-------|
--------14-14~~--16-14-12h14h16p14------------------------------------------|
----x-----------------------------------------------------------------------|
--x-------------------------------------------------------------------------|
-x--------------------------------------------------------------------------|
----------------------------------------------------------------------------|
Comments