Healey Jeff - When The Night Comes Falling From The Sky Chords & Tabs

 

When The Night Comes Falling From The Sky Chords & Tabs

Healey Jeff Chords & Tabs

Version: 1 Type: Tab 0 ratings
1 star 2 stars 3 stars 4 stars 5 stars
comments

When The Night Comes Falling From The Sky Tab

   
##################################################################################
# This file is the author's own work and represents their interpretation of the  #
# song. You may only use this file for private study, scholarship, or research.  #
##################################################################################

The Jeff Healey Band-When The Night Comes Falling From The Sky

Tab by Patrik Hermansson
[ Tab from: http://www.guitartabs.cc/tabs/h/healey_jeff/when_the_night_comes_falling_from_the_sky_tab.html ]
Intro
                                                                         
E||----------------------8--8b-----------17b-17~---------------------17---15----------------|
B||10~--------10-12--10b---10b-10-8-10-8-----16~--17b-17-15----15-17---17----17-15----------|
G||-----7-9h12---------------------------------------------17---------------------17b---14~-|
D||-----------------------------------------------------------------------------------------|
A||-----------------------------------------------------------------------------------------|
E||-----------------------------------------------------------------------------------------|
    0:27                                                            
------------------------------------------------------------------|
-----17-15-15-15--15-13-13-13--13-12-12-12--10~-------------------|
------------------------------------------------------------------|
------------------------------------------------------------------|
------------------------------------------------------------------|
------------------------------------------------------------------|
    1:12                                                              
------------------------------------------------------------------|
-----3-5-3---3-5--------------------------------------------------|
-----------5------------------------------------------------------|
------------------------------------------------------------------|
------------------------------------------------------------------|
------------------------------------------------------------------|
    1:23 Solo                                             
--------------------------10b-10-8----8-10b-10b-10b-10b-8b-8b--------------8---------------|
--------------------10-13----------10-------------------------10b-10b-8h10-----------------|
----5-7h9-5---5-7b9-----------------------------------------------------------7b-5-7b-5----|
------------7---------------------------------------------------------------------------7--|
-------------------------------------------------------------------------------------------|
-------------------------------------------------------------------------------------------|
                                       
------------------------------10h8------------------------------------------|
-----------------------------------10-10h8----------------------------------|  
------5-------------7-7~~~~--------------------9---7h9h7-5h7h5--------------|
-----------------------------------------------------------------7~---------|
----------------------------------------------------------------------------|
----------------------------------------------------------------------------| 
                                               

Intro
Am  F  Am  F  Am  F  Am  
=======================


Tab by Patrik Hermansson 
E-mail:Herman123@hotmail.com

If you want the rest of the song just mail me.

Comments