Healey Jeff - Angel Eyes Chords & Tabs

 

Angel Eyes Chords & Tabs

Healey Jeff Chords & Tabs

Version: 2 Type: Tab 0 ratings
1 star 2 stars 3 stars 4 stars 5 stars
comments

Angel Eyes Tab

   
#----------------------------------PLEASE NOTE---------------------------------#
#This file is the author's own work and represents their interpretation of the #
#song. You may only use this file for private study, scholarship, or research. #
#------------------------------------------------------------------------------#
From: tinus@utctu1.ct.utwente.nl (Martijn Oversteegen)

Angel Eyes (John Hiatt), Jeff Healey Band
>From the album See the Light

riff I
  C         G       F
e-----------------------------
B-----5-----3-------1---------
G-------5-----4-------2-------
D---5-----5-----5-------3-----
A-3---------------5-------(3)-
E-----------------------------

Intro; riff I 4x

======================
CHORUS:  C Em  F  G Am
======================

SOLO

CHORUS (2x)

[ Tab from: http://www.guitartabs.cc/tabs/h/healey_jeff/angel_eyes_tab_ver_2.html ]
Solo (as usual, p=pull, h=hammer, b=bend, /=slide up, \=slide down);

  C                 C         G   F
e-8---------------|-------------------------|-
B---12p10p8-----8-|-------------------------|-
G-----------7/9---|-7/9-9\7p5-7-5------7----|-
D-----------------|---------------7h10---10-|-
A-----------------|-------------------------|-
E-----------------|-------------------------|-

  C             G         F      C          G       F
e----------8----10b(10)p8-10p8-|-8----------5p3------------|--
B-----8h10---10----------------|---10p8-8\5-----5---5------|--
G-7/9--------------------------|------------------7---7-5-7/9-
D------------------------------|---------------------------|--
A------------------------------|---------------------------|--
E------------------------------|---------------------------|--


Comments