Headstrong - Adriana Chords & Tabs

 

Adriana Chords & Tabs

Headstrong Chords & Tabs

Version: 2 Type: Tab 0 ratings
1 star 2 stars 3 stars 4 stars 5 stars
comments

Adriana Tab

   
Band: Headstrong
SOng: Adriana
Album: Headstrong
Tunning:Drop d (low to high: d a d g b e)
Email: gitarkid@hotmail.com (jerry)

intro part a (2 times)this is the way he plays it live and 
in the video which u can c at headstrongmusic.com
--------------------------------------------------------
--------------------------------------------------------
--------------------------------------------------------
----12--------12------------------12-15-----------------
-------15--------15---------12-----------12-15----------
-12--------12--------12--15----15-----------------------

intro part b (2 times)
--------------------------------------------------------
--------------------------------------------------------
--------------------------------------------------------
----------------------------------12-15-----------------
--------12-------------------12-----------12-15---------
-12--15------15--------12--15---15----------------------

lil ditty before chorus is jus a harmonic of 5 on the g 
string LISTEN CAREFULLY!!!! this is when he says "burn a hole in..."

chorus (4 times i think....)
--------------------------------------------------------
--------------------------------------------------------
--------------------------------------------------------
--------------------------------------------------------
--12/0--3-5-3-0-3-0-------------------------------------
--12/0--3-5-3-0-3-0-------------------------------------

second part of chorus
--------------------------------------------------------
--------------------------------------------------------
--------------------------------------------------------
----------7--------5------------------------------------
-0-3-5-3--5-0-3-5--3-0-3-5-3----------------------------
-0-3-5-3----0-3-5----0-3-5-3----------------------------

intro part a one time

lil ditty again
 
chorus 1 and 2
 
then he does something weird with the intro but he ends 
on the 12th fret on the a string, then the 15 fret on the e,
then 12 fret of e, then he does a interlude:
[ Tab from: http://www.guitartabs.cc/tabs/h/headstrong/adriana_tab_ver_2.html ]
--------------------------------------------------------
--------------------------------------------------------
--------------------------------------------------------
--------------------------------------------------------
-999--888--777--888--777-888----------------------------
-999--888--777--888--777-888----------------------------
the timing and number of times u play this is NOT correct!!!

anything else, jus email i guess, but im way too lazy to care 
if u have somethin bad to say, and then again did u write a 
tab for it? NO or else u wouldnt be lookin at mine, so bla!
===========Headstrong – Adriana
Self-Titled Album

Tuning: Drop D

Intro:
E|---------------------------1-------------------
B|--3-1---3-1--------------3-----1---------------
G|---------------------2-------2----repeat-------
D|0-----0--------0---3---3------------4x---------
A|-----------------------------------------------
D|-----------------------------------------------

Verse:
E|--------------------------1--------------------
B|------------------------3------1---------------
G|---------2----------2-------2------------------
D|-0---3-----3--0---3---3------------------------
A|-----------------------------------------------
D|-----------------------------------------------

High part before pre-chorus
E|-----5-------over and over---------------------
B|-3-3---------fool with this--------------------

Pre-Chorus
(“Take a second and thank the rest of your life...)
E|-----------------------------------------------
B|-----------------------------------------------
G|-----------------------------------------------
D|12/0—-5-3-0-3-5-3-0-3--------------------------
A|12/0--5-3-0-3-5-3-0-3--------------------------
D|12/0--5-3-0-3-5-3-0-3--------------------------

Chorus:
E|-----------------------------------------------
B|-----------------------------------------------
G|-----------------------------------------------
D|-0--3-5-12--3-5-10--0-3-5----------------------
A|-0--3-5-12--3-5-10--0-3-5----------------------
D|-0--3-5-12--3-5-10--0-3-5----------------------

Interlude before bridge:
(“Stop screaming...)
E|-----------------------------------------------
B|-----------------------------------------------
G|-----2-----2-------repeat a--------------------
D|-0-3---0-3---7-7---few times-------------------
A|-------------7-7-------------------------------
D|-------------7-7-------------------------------

Bridge:
E|-----------------------------------------------
B|-----------------------------------------------
G|--------------listen to the song---------------
D|-9-------8----for the chord changes------------
A|-9-------8-------------------------------------
D|-9-------8-------------------------------------
Comments