Headstrong - Adriana Chords & Tabs

 

Adriana Chords & Tabs

Headstrong Chords & Tabs

Version: 1 Type: Tab 0 ratings
1 star 2 stars 3 stars 4 stars 5 stars
comments

Adriana Tab

Artist: Headstrong
Song: Adriana
By: Johnny G
Tuning: Dropped D

this is a great song i have 
looked for it everywhere 
and finallyi found it and 
put it here for all hoping
 to find it

Intro
E---------------------------------------------------------------
B---------------------------------------------------------------
G-----------7----------------7--10-----------------7------------
D--0--7--0-----10--0-0--7-0--------7-10---0--7--------10--0-0--7
A----------------------------------------------8---------------
D---------------------------------------------------------------



Riff 1
E------------------------------
B------------------------------
G---------------------7-10-----
D--0-0--7----0--0-7-0------7-10
A--------8-------------------
D------------------------------
   "Adriana...."


[ Tab from: http://www.guitartabs.cc/tabs/h/headstrong/adriana_tab.html ]
Riff 2
E------------------
B------------------
G------------------
D--0-0-10--0-0-10--
A------------------
D------------------
    "Go burn a hole..."
  Play 10x


Chorus
E-------------------------------------------------------------------------
B-------------------------------------------------------------------------
G--7/------------------7/------------------7/------------------7/--------5
D--7/0-0--5-3-0-5-3--0-7/0-0--5-3-0-5-3--0-5/0-0--5-3-0-5-3--0-5/0-0-3-5-5
A--5/0-0--5-3-0-5-3--0-5/0-0--5-3-0-5-3--0-5/0-0--5-3-0-5-3--0-5/0-0-3-5-3
D----0-0--5-3-0-5-3--0---0-0--5-3-0-5-3--0---0-0--5-3-0-5-3--0---0-0-3-5--

           | Riff 3
E----------|-------------------------
B----------|-------------------------
G----------|------7---------5--------
D-5-3-3-5--|0-5-7-7-7-5-0-3-5-5-3-3-5
A-5-3-3-5--|0-5-7-5-7-5-0-3-3-5-3-3-5
D-5-3-3-5--|0-5-7---7-5-0-3---5-3-3-5
           | "if I put my mind to it..."
           |
Comments