Headstones - Tweeter And The Monkeyman Chords & Tabs

 

Tweeter And The Monkeyman Chords & Tabs

Headstones Chords & Tabs

Version: 1 Type: Tab 0 ratings
1 star 2 stars 3 stars 4 stars 5 stars
comments

Tweeter And The Monkeyman Tab

   
 Tuning either ½ down, or dropped D tuning

  This might not be 100% correct, but hey, it goes really well with it…
Note: Some of the chords sound wrong…



    E          D               AM             E
E-xxxxxxxx-----22222222-(0)---xxxxxxxx------xxxxxxxx------
B-xxxxxxxx-----33333333-(1)---11111111-(0)—-xxxxxxxx------
G-11111111-----22222222—(0)---22222222—(0)—-11111111------
D-22222222-(0)-xxxxxxxx-------22222222—(0)--22222222------
A-22222222-(0)-xxxxxxxx-------xxxxxxxx------22222222------
e-xxxxxxxx-----xxxxxxxx-------xxxxxxxx------xxxxxxxx------
X3 without distortion
X2 with distortion

CHORUS
E-------------------------------------------------------pik
B-----------------------------------------------------slide
G-9-9-9-99--999999---7-7-7-77--777777-------------4--------
D-9-9-9-99--999999---7-7-7-77--777777---2---------4x20?----
A-7-7-7-77--777777---5-5-5-55--555555---2x16------2--------
e---------------------------------------0------------------

VERSE
E----------------------------------------------------------
B----------------------------------------------------------
G----------------------------------------------------------
D-10-10----9-9----7-7----9-9-------------------------------
A-10-10x6--9-9x6--7-7x6--9-9x6-----------------------------
e--8--8----7-7----5-5----7-7-------------------------------
     PM      PM     PM     PM
X2

     E          D               AM             E
E-xxxxxxxx-----22222222-(0)---xxxxxxxx------xxxxxxxx------
B-xxxxxxxx-----33333333-(1)---11111111-(0)—-xxxxxxxx------
G-11111111-----22222222—(0)---22222222—(0)—-11111111------
D-22222222-(0)-xxxxxxxx-------22222222—(0)--22222222------
A-22222222-(0)-xxxxxxxx-------xxxxxxxx------22222222------
e-xxxxxxxx-----xxxxxxxx-------xxxxxxxx------xxxxxxxx------
X2

CHORUS
E----------------------------------------------------------
B----------------------------------------------5-7-9-8-7-5-
G-9-9-9-99--999999---7-7-7-77--777777----------------------
D-9-9-9-99--999999---7-7-7-77--777777---2------------------
A-7-7-7-77--777777---5-5-5-55--555555---2x16---------------
e---------------------------------------0------------------

CONTINUED


E----------------------------------------------------------
B----------------------------------------------------------
G-4--------------------------------------------------------
D-4x12-----------------------------------------------------
A-2--------------------------------------------------------
e----------------------------------------------------------

VERSE AGAIN

CHORUS
[ Tab from: http://www.guitartabs.cc/tabs/h/headstones/tweeter_and_the_monkeyman_tab.html ]
E----------------------------------------------------------
B----------------------------------------------
G-9-9-9-99--999999---7-7-7-77--777777----------------------
D-9-9-9-99--999999---7-7-7-77--777777---2------------------
A-7-7-7-77--777777---5-5-5-55--555555---2x16---------------
e---------------------------------------0------------------

E----------------------------------------------------------
B-5-7-9-8-7-5------5-7-9-8-7-5-------5-7-9/12-9h10p9-11/9/7
G----------------------------------------------------------
D-------------9--7---------------9--7----------------------
A-------------9--7---------------9--7----------------------
e-------------7--5---------------7--5----------------------

E----------------------------------------------------------
B--------5-7-9-8-7-5---------------------------------------
G----------------------------4-----------------------------
D-9--7----------------9--7---4x16--------------------------
A-9--7----------------9--7---2-----------------------------
e-7--5----------------7--5---------------------------------

VERSE


E----------------------------------------------------------
B----------------------------------------------------------
G----------------------------------------------------------
D-10-10----9-9----7-7----9-9-------------------------------
A-10-10x6--9-9x6--7-7x6--9-9x6-----------------------------
e--8--8----7-7----5-5----7-7-------------------------------
     PM      PM     PM     PM
X2

    

    E          D               AM             E
E-xxxxxxxx-----22222222-(0)---xxxxxxxx------xxxxxxxx------
B-xxxxxxxx-----33333333-(1)---11111111-(0)—-xxxxxxxx------
G-11111111-----22222222—(0)---22222222—(0)—-11111111------
D-22222222-(0)-xxxxxxxx-------22222222—(0)--22222222------
A-22222222-(0)-xxxxxxxx-------xxxxxxxx------22222222------
e-xxxxxxxx-----xxxxxxxx-------xxxxxxxx------xxxxxxxx------
X2

CHORUS

E----------------------------------------------------------
B----------------------------------------------
G-9-9-9-99--999999---7-7-7-77--777777----------------------
D-9-9-9-99--999999---7-7-7-77--777777---2------------------
A-7-7-7-77--777777---5-5-5-55--555555---2x16---------------
e---------------------------------------0------------------

E----------------------------------------------------------
B-5-7-9-8-7-5------5-7-9-8-7-5-------5-7-9/12-9h10p9-11/9/7
G----------------------------------------------------------
D-------------9--7---------------9--7----------------------
A-------------9--7---------------9--7----------------------
e-------------7--5---------------7--5----------------------

E----------------------------------------------------------
B--------5-7-9-8-7-5---------------------------------------
G----------------------------4~----------------------------
D-9--7----------------9--7---4~----------------------------
A-9--7----------------9--7---2~----------------------------
e-7--5----------------7--5---------------------------------
Comments