Head Automatica - Razor Chords & Tabs

 

Razor Chords & Tabs

Head Automatica Chords & Tabs

Version: 1 Type: Bass Tab

Razor Bass Tab

   
G: --------------------------------------------------------------
D: --5~~~~--3~~~~--7~~~~----------5~~~~--3~~~~--7~~~~------------
A: -7------5------7---------75~5-7------5------7---------75~77505
E: 5------5------5------5~~~----5------5------5------5~~~--------

G: -----------------------------------------------------------------
D: -----------------------------------------------------------------
A: ---53-0--53530---53-0--53530---53-0--53530---53-0--53530-55555555
E: 55-----55-----55-----55-----55-----55-----55-----55--------------

G: -----------------------------------
D: -----------------------------------
A: 55555555-33333333-77777777-33333333
E: -----------------------------------

G: -----------------------------------
D: -----------------------------------
A: 55555555-33333333-77777777-33333333
E: -----------------------------------

G: ----- 16 times playing each -----
D: ---------------------------------
A: 5555555555555555-3333333333333333
E: ---------------------------------

G: ----------------------------------------------------------
D: --5~~~~--3~~~~--7~~~~----------5~~~~--3~~~~--7~~~~--------
A: -7------5------7---------75~5-7------5------7---------75~7
E: 5------5------5------5~~~----5------5------5------5~~~----

G: -----------------------------------------------------------------
D: -----------------------------------------------------------------
A: ---53-0--53530---53-0--53530---53-0--53530---53-0--53530-55555555
E: 55-----55-----55-----55-----55-----55-----55-----55-------------- 
[ Tab from: http://www.guitartabs.cc/tabs/h/head_automatica/razor_btab.html ]
G: -----------------------------------
D: -----------------------------------
A: 55555555-33333333-77777777-33333333
E: -----------------------------------

G: -----------------------------------
D: -----------------------------------
A: 55555555-33333333-77777777-33333333
E: -----------------------------------

        16x 
G: ---------------------------------
D: ---------------------------------
A: 5555555555555555-3-------33333333
E: ---------------------------------

G: -----------------------------------
D: -----------------------------------
A: 55555555-33333333-77777777-33333333
E: -----------------------------------

G: ------------------------------------------------
D: ------------------------------------------------
A: 5~~7~~8~~9~~5~~7~~8~~9~~5~~7~~8~~9~~5~~7~~8~~9~~
E: ------------------------------------------------

G: -----------------------------------
D: -----------------------------------
A: 55555555-33333333-77777777-33333333
E: -----------------------------------

G: -----------------------------------
D: -----------------------------------
A: 55555555-33333333-77777777-33333333
E: -----------------------------------
   
        16x 
G: ---------------------------------
D: ---------------------------------
A: 5555555555555555-3-------33333333
E: ---------------------------------

G: -----------------------------------
D: -----------------------------------
A: 55555555-33333333-77777777-33333333
E: -----------------------------------

G: -----------------------------------
D: -----------------------------------
A: 55555555-33333333-77777777-33333333
E: -----------------------------------

G: -------
D: -------
A: 5~3~7~~
E: -------