Head Automatica - I Shot William H Macy Chords & Tabs

 

I Shot William H Macy Chords & Tabs

Head Automatica Chords & Tabs

Version: 1 Type: Bass Tab

I Shot William H Macy Bass Tab

   
  Intro    2x
G|-----------------|
D|-------------757-|
A|----------------8|
E|-5-0-5-0-5-0-----|

  Verse       entire thing 4x
G|---------------------|---------------------|
D|-----------2--2------|-----------2--2------|
A|------3--3------5353-|------3--3------5-55-|
E|-3--3----------------|-3--3----------------|

  Chorus      entire thing just once
G|-----------------|------------------|-----------------|-----------------------------------|
D|-----------------|------------------|-----------------|-----------------------------------|
A|----------3-33-5-|----------77-7575-|----------3-33-5-|-----------------------------------|
E|-33333333--------|-55555555---------|-33333333--------|-6565656565656565-4343434343434343-|

  Verse       entire thing 2x
G|---------------------|---------------------|
D|-----------2--2------|-----------2--2------|
A|------3--3------5353-|------3--3------5-55-|
E|-3--3----------------|-3--3----------------|
[ Tab from: http://www.guitartabs.cc/tabs/h/head_automatica/i_shot_william_h_macy_btab.html ]
  Chorus      entire thing just once
G|-----------------|------------------|-----------------|-----------------------------------|
D|-----------------|------------------|-----------------|-----------------------------------|
A|----------3-33-5-|----------77-7575-|----------3-33-5-|-----------------------------------|
E|-33333333--------|-55555555---------|-33333333--------|-6565656565656565-4343434343434343-|

  Intro    4x
G|-----------------|
D|-------------757-|
A|----------------8|
E|-5-0-5-0-5-0-----|

  Verse       entire thing 5x
G|---------------------|---------------------|
D|-----------2--2------|-----------2--2------|
A|------3--3------5353-|------3--3------5-55-|
E|-3--3----------------|-3--3----------------|

  Bridge           8x
G|-----------------------------------|
D|-----------------------------------|
A|-----------------------------------|
E|-6565656565656565-4343434343434343-|

  Ending
G|-----------------|-------------------------------------------------------|
D|-----------------|-------------------------------------------------------|
A|-----------------|-------------------------------------------------------|
E|-3~~~~~~~X----5\-|-------------------------------------------------------|