Head Automatica - God Chords & Tabs

 

God Chords & Tabs

Head Automatica Chords & Tabs

Version: 1 Type: Bass Tab

God Bass Tab

Band: Head Automatica
Song: God
Album: Pop Rocks - EP
Tabbed By : PinkRoses
e-mail: hivoltage3879@aol.com

Tuning: EADG

(I'm too lazy to type it all out, so listen and figure out how many times you need to play each note)
[ Tab from: http://www.guitartabs.cc/tabs/h/head_automatica/god_btab.html ]
(0:06) Intro - Verse (1:04)
G|---------------------------------------------------------------------------|
D|-----3-------3------------------------3-------3----------------------------|
A|-4-4---4-4-4---------1-------3--4-4-4---4-4-4---------1-------3------------|
E|---------------2-2-2---4-4-4--------------------2-2-2---4-4-4--------------|
(0:40) Chorus
G|---------------------------------------------------------------------------|
D|---------------------------------------------------------------------------|
A|-4--1----------------------------------------------------------------------|
E|-------2--4----------------------------------------------------------------|
(0:53)
G|---------------------------------------------------------------------------|
D|---------------------------------------------------------------------------|
A|---------------------------------------------------------------------------|
E|-2-2-2-2-2-2-2-2-2-2-2-2-2-2-2-2-------------------------------------------|
(1:57)
G|---------------------------------------------------------------------------|
D|---------------------------------------------------------------------------|
A|---------------------------------------------------------------------------|
E|-2-2-2-2-2-2-2-2-2-2-2-2-2-2-2-2--4-4-4-4-4-4-4-4-4-4-4-4-4-4-4-4----------|
(2:04) Guitar Solo
G|---------------------------------------------------------------------------|
D|---------------------------------------------------------------------------|
A|-2-----7--2----------------------------------------------------------------|
E|----2----------------------------------------------------------------------|
(2:18) Last Chorus
G|---------------------------------------------------------------------------|
D|---------------------------------------------------------------------------|
A|-6--3----------------------------------------------------------------------|
E|-------4--6----------------------------------------------------------------|
Outro
G|---------------------------------------------------------------------------|
D|---------------------------------------------------------------------------|
A|---------------------------------------------------------6-----------------|
E|-4-4-4-4-4-4-4-4-4-4-4-4-4-4-4-4--6-6-6-6-6-6-6-6--6--6--------------------|