Head Automatica - Brooklyn Is Burning Chords & Tabs

 

Brooklyn Is Burning Chords & Tabs

Head Automatica Chords & Tabs

Version: 1 Type: Tab 0 ratings
1 star 2 stars 3 stars 4 stars 5 stars
comments

Brooklyn Is Burning Tab

Head Automatica
Brooklyn is Burning
tabbed by Josh Grant
transcribed by: Rob Phillips

(Verse)     (this is played fast)
E -------|--------------------------|
B -------|--------------------------|
G -------|--------------------------|
D -------|--------------------------|
A ---6---|-------6-4h-6-------6-----|
E -------|---4-6h--------4-6h-------|

[ Tab from: http://www.guitartabs.cc/tabs/h/head_automatica/brooklyn_is_burning_tab.html ]
(Chorus)        (END)
E -------------||--------|
B -------------||--------|
G -------------||--------|
D -------------||--------|
A --6----------||--8-----|
E ----2-3-4----||--6-----|(Slide Down)

(End Chorus)
E ------------------------|
B ------------------------|
G ------------------------|
D --88--66------8---------|
A --66--44--66--6-(ring)--|
E ----------44------------|

(Bridge) G 01             G 02
E ---------------------|--------------------
B ---------------------|---(repeat)---------
G ---------------------|------8-6-----------
D --66------88---------|----8---------8-----
A --44--66--66--88-----|--6-----------6(x8)-
E ------44------66-----|--------------------
Comments