Hazlewood Lee - Vem Kan Segla Chords & Tabs

 

Vem Kan Segla Chords & Tabs

Hazlewood Lee Chords & Tabs

Version: 1 Type: Tab 0 ratings
1 star 2 stars 3 stars 4 stars 5 stars
comments

Vem Kan Segla Tab

   
Lee Hazlewood & Nina Lizell - Vem Kan Segla (trad. swedish song)

Intro:

e|--------0------------0------------0------------0------|
B|------1---1----1---1---1--------1---1--------1---1----|
G|-----2------2-----2------2-----2------2-----2------2--|
D|----2------------2------------2------------2----------|
A|--0-------------------------0------------0------------|
E|------------------------------------------------------|


A:

e|--------0------------0------------0------------0------|
B|------1---1--------1---1--------1---1--------1---1----|
G|-----2------2-----2------2-----2------2-----2------2--|
D|----2------------2------------2------------2----------|
A|--0------------0------------0------------0------------|
E|------------------------------------------------------|

B:

e|--------1------------1------------0------------0------|
B|------3---3--------0---0--------0---0--------1---1----|
G|-----2------2-----2------2-----0------0-----2------2--|
D|----0------------0------------2------------2----------|
A|--0-------------------------3------------0------------|
E|---------------3--------------------------------------|

C: 
[ Tab from: http://www.guitartabs.cc/tabs/h/hazlewood_lee/vem_kan_segla_tab.html ]
e|--------1------------1------------0------------0------|
B|------3---3--------3---3--------5------------1---1----|
G|-----2------2-----2------2-----5----5-------2------2--|
D|----0------------0------------7-------7----3----------|
A|--0-------------------------0-------------------------|
E|---------------1-------------------------1------------|

D:

e|--------1------------0------------0------------0------|
B|------3---3--------0---0--------1---1--------1---1----|
G|-----2------2-----1------1-----2------2-----2------2--|
D|----0------------2------------2------------2----------|
A|--2-------------------------0------------0------------|
E|---------------0--------------------------------------|


Verse = (A,B,C,D)



Lyric as it sound in Swedish:

Verse 1:

Vem ken siyla forutan vind? 
Vem ken ru itan oror? 
Vem ken shilyas fron vennen sin, 
utan att fella torar? 

Verse 2:

yo ken siyla forutan vind. 
yo ken ru itan oror. 
Men ey shilyas fron vennen min. 
utan att fella torar.







Translation to English: (by lee hazlewood)

who can sail without the wind?
who can row without an oar?
who can say goodbye to their love
without crying?

I can sail without the wind.
and I can row without an oar.
but I can't say goodbye to my love
without crying.




Written by Elad Matary











Comments