Hazlewood Lee - Pray Them Bars Away Chords & Tabs

 

Pray Them Bars Away Chords & Tabs

Hazlewood Lee Chords & Tabs

Version: 1 Type: Chords 0 ratings
1 star 2 stars 3 stars 4 stars 5 stars
comments

Pray Them Bars Away Chords

   
Lee Hazlewood - Pray the bars away

intro/end:

|------------------------------------------------------------------|
|------------------------------------------------------------------|
|------------------------------------------------------------------|
|----------------------------------------4-4-4-4-----1-2-1---------|
|-------1-1-1-1----------------------4-4---------4----------4-2-4--|
|--0^2----------2---2-0---0-0^2-2----------------------------------|

|------------------------------------------------------------------|
|------------------------------------------------------------------|
|------------------------------------------------------------------|
|-------4-4-4-4-----1-2-1------------------------------------------|
|--4-4----------4----------4-2-4--------1-1-1-1--------------------|
|-----------------------------------2-2---------2---2-0---0-0^2-2--|


F#                   E             F#
four years down and twenty one to blow
                  E             F#
ten thousand more breakfasts to go
                            E           F#
fourteen million seconds of living this way
                                   E              F#        E    F#
and I guess it's time I started to pray them bars away

[ Tab from: http://www.guitartabs.cc/tabs/h/hazlewood_lee/pray_them_bars_away_crd.html ]
                                 E               F#
I wonder what you're doing since I don't see you none
                               E                F#
are you still a doin' all them rotten things we done
                                  E                  F#
if you've got some spare time why don't you learn to pray
                         E               F#       G
maybe you can help me to pray them bars away


                        F                   G
remember old red barber we checked out last night
                                     F                  G
he still hold them eighteen years it serves the devil's right
                                      F           G
he checked out in a casket he've been sixty two today
                                     F               G      Ab
I heard that he went crazy tryin' to pray them bars away


                               F#              Ab
sometimes I miss the weman and miss them all I do
                                   F#                  Ab
sometimes I miss the whiskey and I miss the good times too
                           F#                Ab
sometimes I miss my mama I saw her christmas day
                           F#             Ab      A
but I never miss a time to pray them bars away


                                  G               A
I'm told I should be thankful for everything I've got
                                        G                    A
so thank you for the rock walls and the brave bulls thanks a lot
                                   G              A
and thank you for the good job and twenty cents a day
                                G               A        G-A  G-A
thank you for the break time to pray them bars away




tabbed by Elad Matari
eladmat@walla.co.il
Comments