Hazlewood Lee - Easy And Me Chords & Tabs

 

Easy And Me Chords & Tabs

Hazlewood Lee Chords & Tabs

Version: 1 Type: Tab 0 ratings
1 star 2 stars 3 stars 4 stars 5 stars
comments

Easy And Me Tab

   
Lee Hazlewood - Easy an me


Intro:

|-----0---------------~0---------------|
|--------0----3-6--3--~0---------------|
|---0---0-0----7--7---~1---------------|
|----2-2-----0--------~2------2-0------|
|--3------------------~2----------3-2--|
|---------------------~0---------------|

|-----0---------------~0-------------------|
|--------0----3-6--3--~0---------------------------------------|
|---0---0-0----7--7---~1----------------------------------------|
|----2-2-----0--------~2-----2-0--------------------------------|
|--3------------------~2---3----------------------------------|
|---------------------~0------------------------------------|

[ Tab from: http://www.guitartabs.cc/tabs/h/hazlewood_lee/easy_and_me_tab.html ]
C                                                    G
we rode on trains with hunger and pain but we didn't cry
         F                 C    Dm  Em  F
easy and me and some other guy

we hook some rides , stood side by side and watch cars go by
easy and me and some other guy

    Eb           Eb/D   Eb/Db  Gm             Dm        F 
the days and the nights     we cared for each other 
    Eb             Eb/D   Eb/Db                   G      Dm  Em  F    
the wrongs and the rights     we shared with each other

then one day last week she kissed my cheek and whispered goodbye
then easy walked on with some other guy



Tabbed by Elad Matari
eladmat@walla.co.il
Comments