Hayley Harnicher - The Lion Sleeps Tonight Chords & Tabs

 

The Lion Sleeps Tonight Chords & Tabs

Hayley Harnicher Chords & Tabs

Version: 1 Type: Tab 2 ratings
1 star 2 stars 3 stars 4 stars 5 stars
comments

The Lion Sleeps Tonight Tab

THE LION SLEEPS TONIGHT
WRITTEN BY HAYLEY HARNICHER
[ Tab from: http://www.guitartabs.cc/tabs/h/hayley_harnicher/the_lion_sleeps_tonight_tab.html ]
This is my first guitar tab ever. If I were to say so myself, I think i did i really
good job.
E----------------------------------2---------2-0----------------------------
B-0-2-4-2--4-5-4-2-0--2-4-2-0-4-2-----4-2-4-------4-2-0--2-4-2-0-4-2--------
G---------------------------------------------------------------------------
D---------------------------------------------------------------------------
A---------------------------------------------------------------------------
E---------------------------------------------------------------------------

E--------------2-0-2-0-----------------2-0-2-0-------------------------------
B-----------------------4----------------------4-----------------------------
G----------0-0---------------------------------------------------------------
D-1-1--3-3-----------------2-2-2-2--2-------------2-2-2-2--2-2-2-2-2-2-------
A----------------------------------------------------------------------------
E----------------------------------------------------------------------------
Comments