Hayden - We Dont Mind Chords & Tabs

 

We Dont Mind Chords & Tabs

Hayden Chords & Tabs

Version: 1 Type: Tab 0 ratings
1 star 2 stars 3 stars 4 stars 5 stars
comments

We Dont Mind Tab

We Don't Mind
By: David Harrison: blaze@interlog.com
Song: “We Don’t Mind” by “Hayden”
Album: “everything i long for”(1995)

I saw a version of this in OLGA but it was crap so I thought I would
tab it out because I hate it when people tab songs out incorrectly.
I didn’t tab out every little change because it would have taken me
forever so you’re gonna have to figure some things out for yourself.
If you have any questions, comments, corrections, or additions feel
free to e-mail them to me.

********************
* Tune Down 1 Step *
********************


Intro:
E|---------------0---0---0-0-0-----0---0-0---0---0-0-0-0----|
B|-----3-3-3-3---3---3---3-3-0-----0---0-1-------1-0-0-0----|
G|-0---0-0-0-0---0---0---0-0-0-0---0---0-0-------0-0-0-0-0--|
D|-4---4-4-4-4---4---4---4-4-4-2---2---2-2-------2-2-2-2-4--|
A|-5---------5---------5-------3-----------------3-------5--|
E|----------------------------------------------------------|
[ Tab from: http://www.guitartabs.cc/tabs/h/hayden/we_dont_mind_tab.html ]
E|------------0-----------0-0-0-----0-0-0-0---0---0-0-0-----|
B|--0---0-----0-0---0-----0-0-0-----0-0-0-1---1---1-1-----1-|
G|--0---0-0-----0---0-0---0-0-0-0---0-0-0-0---0---0-0---0---|
D|--------4-----------4---------2---------------------------|
A|--------5-----------5---------3---------------------------|
E|----------------------------------------------------------|


Verse:
E|------0------------2----------3----------0-----------0-----|
B|---------1---0--------3---------------------0--0-------0h1-|
G|-----------------------------------------------------------|
D|---------------0-------------------------------------------|
A|-3-----------------------------------------------3---------|
E|--------------------------3-----2----0---------------------|

E|-----------0------|
B|--1------------1--|
G|-------0-----0----|
D|-----2---2--------|
A|------------------|
E|------------------|
*****************************************************************
* That’s just what he plays in the very first riff of the first *
* verse but it stays pretty much the same chords with different *
* picking so you should be able to figure out the rest of it.   *
*****************************************************************


Chorus:
E|--0--|-0---0-0-0---0--0-0-0-|
B|--3--|-1---1-0-1---1--0-0-0-|
G|--0--|-0---0-0-0---0--0-0-0-|
D|--4--|-2---2-2-2---2--2-2-2-|
A|--5--|-3---3-3-3---3--3-3-3-|
E|-----|----------------------|
********************************************************
* Once again the strumming changes throughout the song *
* so you’ll need to improvise on what i’ve given you.  *
********************************************************
====
Comments