Hayden - Bad As They Seem Chords & Tabs

 

Bad As They Seem Chords & Tabs

Hayden Chords & Tabs

Version: 4 Type: Tab 0 ratings
1 star 2 stars 3 stars 4 stars 5 stars
comments

Bad As They Seem Tab

By: Sly (slapoa073@rogers.com)
Song: Bad As They Seem 
Artist: Hayden
Album: Everything I Long For

This song is played  in drop D, but all strings tuned down really low.
Just listen to the song to figure it out. Any comments welcome.

e|-----------------------00----------------------------|
b|-----------------------00----------------------------|
g|-----------------------00----------------------------|
d|--4--4--4-/X-X--------------0--0--0----------------0-|  x10
a|--2--2--2-/X-X--7--7--7777--0--0--0------0h2-0-0h2---|
d|--0--0--0-/X-X--5--5--5555--0--0--0--0-0-------------|
[ Tab from: http://www.guitartabs.cc/tabs/h/hayden/bad_as_they_seem_tab_ver_4.html ]
e|--------0--00-------0--00-------0--00-------0--00----|
b|--------0--00-------0--00-------0--00-------0--00----|
g|--------0--00-------0--00-------0--00-------0--00----|
d|--------0--00-------0--00-------0--00-------0--00----|  
a|--7--7--7--77/9--9--9--99\7--7--7--77/9--9--9--99----|
d|--5--5--5--55/7--7--7--77\5--5--5--55/7--7--7--77----|

e|--------0--00----0--0000-----------------------------|
b|--------0--00----0--0000-----------------------------|
g|--------0--00----0--0000-----------------------------|
d|--------0--00----0--0000--0--0--0-0-0-0-0-0-0-0--0---|
a|--7--7--7--77/9--9--9999--0--0--0h2-0-0h2-0-0h2------|
d|--5--5--5--55/7--7--7777--0--0--0-0-0-0-0-0-0-0------|
                           
So this is it, these parts repeat throughout the song. Just listen closely for
the changes,it's an easy one to figure out.
Comments