Hawthorne Heights - Where Can I Stab Myself In The Ears Chords & Tabs

 

Where Can I Stab Myself In The Ears Chords & Tabs

Hawthorne Heights Chords & Tabs

Version: 2 Type: Tab

Where Can I Stab Myself In The Ears Tab

This is my 100% right version of this song!
Its a Big Gino tab!
Drop the top E string flat!
. is a palm mute!
* is a pinch harmonic!
Have Fun!

Guitar 2 Intro:
e----------------------------------|
b----------------------------------|
g-----15----16---------------------|
d--13----13------------------------|
a----------------------------------| x1
eb---------------------------------|

Guitar 2 Intro ct.:
e----------------------------------|
b----------------------------------|
g-----15----15----16---------------|
d--13----13----13------------------|  x11
a----------------------------------|
eb---------------------------------|

Guitar 1 and 3 Intro:
e----------------------------------|
b----------------------------------|
g----------------------------------|
d------6--4-4----------------------|
a--1---4--2-2----------------------|
eb-0-------------------------------|

Guitar 1 and 3 Intro ct.:
e----------------------------------|
b----------------------------------|
g----------------------------------|
d---------6--4-4-------------------|
a--6--1---4--2-2-------------------|
eb-5--0----------------------------|

Guitar 1 and 3 Verse:
e----------------------------------|
b----------------------------------|
g----------------------------------|
d-----------6-------4--------------|
a--1-(x16)--4-(x 8)-2-(x 16)-------|  x1
eb-0-------------------------------|
   .        .       .

Guitar 1 and 3 Verse ct:
e-----------------------------------------|
b-----------------------------------------|
g-----------------------------------------|
d--------------------6-------4------------|
a--6-(x 4)-1-(x 16)--4-(x 8)-2-(x 16) x 5-|
eb-5-------0------------------------------|
   .       .         .       .

All Guitars ( the little thing b4 the pre-chrous)
e-----------------------------------|
b-------5---7---9---10--------------|
g-----------------------------------|
d-------2---4---6---7---------------|
a--1~-------------------------------| x1
eb-0~-------------------------------|


All Guitars Pre-Chorus:
e----------------------------------|
b----------------------------------|
g----------------------------------|
d--4---6-----3-----6---------------|  Figure out strum pattern.
a--2---4-----1-----4---------------|
eb---------------------------------|

Guitar 1  Chorus:
e----------------------------------|
b----------------------------------|
g----------------------------------|
d---------------------------4---6--|  x2
a--1-1---1-1---1-1---1-1----2---4--|
eb-0-0---0-0---0-0---0-0-----------|

[ Tab from: http://www.guitartabs.cc/tabs/h/hawthorne_heights/where_can_i_stab_myself_in_the_ears_tab_ver_2.html ]
Guitar 2 Chorus:
e--------------------------------------------------|
b--------------------------------------------------|
g--6----------8---------10---------11------4---6---|
d------------------------------------------2---4---|  x2
a--4-(x 8)----6-(x 8)----8-(x 8)----9-(x8)---------|
eb-------------------------------------------------|

Guitar 1 and 3 After Chorus:
e----------------------------------|
b----------------------------------|
g----------------------------------|
d--------------------x-4---x-6-----|
a--------------------x-2---x-4-----| x 4
eb-0-0---0-0---0-0-----------------|

guitar 2 on after guitar one 2 times
After Chorus:
e-------------------------------------|
b-------------------------------------|
g-------------------------------------|
d------6-6-6b-----6-6-6b-----x-4--x-6-|
a----------------------------x-2--x-4-|  x 2
eb-0-0--------0-0--------0-0----------|


Guitar 2
e----------------------------------|
b----------------------------------|
g----------------------------------|
d---4--6--8~-----------------------|
a----------------------------------|
eb---------------------------------|


Guitar 1
e----------------------------------|
b----------------------------------|
g----------------------------------|
d---5--7--9~-----------------------|
a----------------------------------|
eb---------------------------------|

Repeat Pre- chorus
then
Repeat Chorus

All Guitars B4 Breakdown:
e----------------------------------|
b----------------------------------|
g----------------------------------|   x1
d------6--4------------------------|
a--1---4--2------------------------| Let them all ring out
eb-0-------------------------------|


All Guitars B4 Breakdown Ct:
e----------------------------------|
b----------------------------------|
g----------------------------------|
d---------6--4---------------------|  x 4
a--6--1---4--2---------------------|
eb-5--0----------------------------|

Guitar 2 Breakdown:
e----------------------------------------------------------|
b----------------------------------------------------------|
g--------------------------5*----------------------5-------|
d-----3-5-3-----3-5-3-3-5----------3-5-3------3-5----------|
a----------------------------------------------------  x 6-|
eb-0-0------0-0----------------0-0-------0-0---------------|

End: Both Guitars
e-----------------------------------|
b-----------------------------------|
g-----------------------------------|
d-----------------------------------|  Figure out strumming
a--1~---1---5---6-------------------|
eb-0~---0---3---5-------------------|


e-----------------------------------|
b-----------------------------------|
g-----------------------------------|
d-----------------------------------|
a------------1~---------------------|
eb-----------0~---------------------|